999
DXF created by Inkscape
  0
SECTION
  2
HEADER
  9
$ACADVER
  1
AC1014
  9
$HANDSEED
  5
FFFF
  9
$MEASUREMENT
 70
     1
  0
ENDSEC
  0
SECTION
  2
TABLES
  0
TABLE
  2
VPORT
  5
8
330
0
100
AcDbSymbolTable
 70
     4
  0
VPORT
  5
2E
330
8
100
AcDbSymbolTableRecord
100
AcDbViewportTableRecord
  2
*ACTIVE
 70
     0
 10
0.0
 20
0.0
 11
1.0
 21
1.0
 12
210.0
 22
148.5
 13
0.0
 23
0.0
 14
10.0
 24
10.0
 15
10.0
 25
10.0
 16
0.0
 26
0.0
 36
1.0
 17
0.0
 27
0.0
 37
0.0
 40
341.0
 41
1.24
 42
50.0
 43
0.0
 44
0.0
 50
0.0
 51
0.0
 71
     0
 72
   100
 73
     1
 74
     3
 75
     0
 76
     0
 77
     0
 78
     0
  0
ENDTAB
  0
TABLE
  2
LTYPE
  5
5
330
0
100
AcDbSymbolTable
 70
     1
  0
LTYPE
  5
14
330
5
100
AcDbSymbolTableRecord
100
AcDbLinetypeTableRecord
  2
BYBLOCK
 70
     0
  3

 72
    65
 73
     0
 40
0.0
  0
LTYPE
  5
15
330
5
100
AcDbSymbolTableRecord
100
AcDbLinetypeTableRecord
  2
BYLAYER
 70
     0
  3

 72
    65
 73
     0
 40
0.0
  0
LTYPE
  5
16
330
5
100
AcDbSymbolTableRecord
100
AcDbLinetypeTableRecord
  2
CONTINUOUS
 70
     0
  3
Solid line
 72
    65
 73
     0
 40
0.0
  0
ENDTAB
  0
TABLE
  2
LAYER
  5
2
100
AcDbSymbolTable
 70
94
  0
LAYER
  5
50
100
AcDbSymbolTableRecord
100
AcDbLayerTableRecord
  2
0
 70
0
  6
CONTINUOUS
  0
LAYER
  5
51
100
AcDbSymbolTableRecord
100
AcDbLayerTableRecord
  2
A
 70
0
  6
CONTINUOUS
  0
LAYER
  5
52
100
AcDbSymbolTableRecord
100
AcDbLayerTableRecord
  2
B
 70
0
  6
CONTINUOUS
  0
LAYER
  5
53
100
AcDbSymbolTableRecord
100
AcDbLayerTableRecord
  2
C
 70
0
  6
CONTINUOUS
  0
LAYER
  5
54
100
AcDbSymbolTableRecord
100
AcDbLayerTableRecord
  2
D
 70
0
  6
CONTINUOUS
  0
LAYER
  5
55
100
AcDbSymbolTableRecord
100
AcDbLayerTableRecord
  2
E
 70
0
  6
CONTINUOUS
  0
LAYER
  5
56
100
AcDbSymbolTableRecord
100
AcDbLayerTableRecord
  2
F
 70
0
  6
CONTINUOUS
  0
LAYER
  5
57
100
AcDbSymbolTableRecord
100
AcDbLayerTableRecord
  2
G
 70
0
  6
CONTINUOUS
  0
LAYER
  5
58
100
AcDbSymbolTableRecord
100
AcDbLayerTableRecord
  2
H
 70
0
  6
CONTINUOUS
  0
LAYER
  5
59
100
AcDbSymbolTableRecord
100
AcDbLayerTableRecord
  2
I
 70
0
  6
CONTINUOUS
  0
LAYER
  5
5a
100
AcDbSymbolTableRecord
100
AcDbLayerTableRecord
  2
J
 70
0
  6
CONTINUOUS
  0
LAYER
  5
5b
100
AcDbSymbolTableRecord
100
AcDbLayerTableRecord
  2
K
 70
0
  6
CONTINUOUS
  0
LAYER
  5
5c
100
AcDbSymbolTableRecord
100
AcDbLayerTableRecord
  2
L
 70
0
  6
CONTINUOUS
  0
LAYER
  5
5d
100
AcDbSymbolTableRecord
100
AcDbLayerTableRecord
  2
M
 70
0
  6
CONTINUOUS
  0
LAYER
  5
5e
100
AcDbSymbolTableRecord
100
AcDbLayerTableRecord
  2
N
 70
0
  6
CONTINUOUS
  0
LAYER
  5
5f
100
AcDbSymbolTableRecord
100
AcDbLayerTableRecord
  2
O
 70
0
  6
CONTINUOUS
  0
LAYER
  5
60
100
AcDbSymbolTableRecord
100
AcDbLayerTableRecord
  2
P
 70
0
  6
CONTINUOUS
  0
LAYER
  5
61
100
AcDbSymbolTableRecord
100
AcDbLayerTableRecord
  2
Q
 70
0
  6
CONTINUOUS
  0
LAYER
  5
62
100
AcDbSymbolTableRecord
100
AcDbLayerTableRecord
  2
R
 70
0
  6
CONTINUOUS
  0
LAYER
  5
63
100
AcDbSymbolTableRecord
100
AcDbLayerTableRecord
  2
S
 70
0
  6
CONTINUOUS
  0
LAYER
  5
64
100
AcDbSymbolTableRecord
100
AcDbLayerTableRecord
  2
T
 70
0
  6
CONTINUOUS
  0
LAYER
  5
65
100
AcDbSymbolTableRecord
100
AcDbLayerTableRecord
  2
U
 70
0
  6
CONTINUOUS
  0
LAYER
  5
66
100
AcDbSymbolTableRecord
100
AcDbLayerTableRecord
  2
V
 70
0
  6
CONTINUOUS
  0
LAYER
  5
67
100
AcDbSymbolTableRecord
100
AcDbLayerTableRecord
  2
W
 70
0
  6
CONTINUOUS
  0
LAYER
  5
68
100
AcDbSymbolTableRecord
100
AcDbLayerTableRecord
  2
X
 70
0
  6
CONTINUOUS
  0
LAYER
  5
69
100
AcDbSymbolTableRecord
100
AcDbLayerTableRecord
  2
Y
 70
0
  6
CONTINUOUS
  0
LAYER
  5
6a
100
AcDbSymbolTableRecord
100
AcDbLayerTableRecord
  2
Z
 70
0
  6
CONTINUOUS
  0
LAYER
  5
6b
100
AcDbSymbolTableRecord
100
AcDbLayerTableRecord
  2
a_
 70
0
  6
CONTINUOUS
  0
LAYER
  5
6c
100
AcDbSymbolTableRecord
100
AcDbLayerTableRecord
  2
b_
 70
0
  6
CONTINUOUS
  0
LAYER
  5
6d
100
AcDbSymbolTableRecord
100
AcDbLayerTableRecord
  2
c_
 70
0
  6
CONTINUOUS
  0
LAYER
  5
6e
100
AcDbSymbolTableRecord
100
AcDbLayerTableRecord
  2
d_
 70
0
  6
CONTINUOUS
  0
LAYER
  5
6f
100
AcDbSymbolTableRecord
100
AcDbLayerTableRecord
  2
e_
 70
0
  6
CONTINUOUS
  0
LAYER
  5
70
100
AcDbSymbolTableRecord
100
AcDbLayerTableRecord
  2
f_
 70
0
  6
CONTINUOUS
  0
LAYER
  5
71
100
AcDbSymbolTableRecord
100
AcDbLayerTableRecord
  2
g_
 70
0
  6
CONTINUOUS
  0
LAYER
  5
72
100
AcDbSymbolTableRecord
100
AcDbLayerTableRecord
  2
h_
 70
0
  6
CONTINUOUS
  0
LAYER
  5
73
100
AcDbSymbolTableRecord
100
AcDbLayerTableRecord
  2
i_
 70
0
  6
CONTINUOUS
  0
LAYER
  5
74
100
AcDbSymbolTableRecord
100
AcDbLayerTableRecord
  2
j_
 70
0
  6
CONTINUOUS
  0
LAYER
  5
75
100
AcDbSymbolTableRecord
100
AcDbLayerTableRecord
  2
k_
 70
0
  6
CONTINUOUS
  0
LAYER
  5
76
100
AcDbSymbolTableRecord
100
AcDbLayerTableRecord
  2
l_
 70
0
  6
CONTINUOUS
  0
LAYER
  5
77
100
AcDbSymbolTableRecord
100
AcDbLayerTableRecord
  2
m_
 70
0
  6
CONTINUOUS
  0
LAYER
  5
78
100
AcDbSymbolTableRecord
100
AcDbLayerTableRecord
  2
n_
 70
0
  6
CONTINUOUS
  0
LAYER
  5
79
100
AcDbSymbolTableRecord
100
AcDbLayerTableRecord
  2
o_
 70
0
  6
CONTINUOUS
  0
LAYER
  5
7a
100
AcDbSymbolTableRecord
100
AcDbLayerTableRecord
  2
p_
 70
0
  6
CONTINUOUS
  0
LAYER
  5
7b
100
AcDbSymbolTableRecord
100
AcDbLayerTableRecord
  2
q_
 70
0
  6
CONTINUOUS
  0
LAYER
  5
7c
100
AcDbSymbolTableRecord
100
AcDbLayerTableRecord
  2
r_
 70
0
  6
CONTINUOUS
  0
LAYER
  5
7d
100
AcDbSymbolTableRecord
100
AcDbLayerTableRecord
  2
s_
 70
0
  6
CONTINUOUS
  0
LAYER
  5
7e
100
AcDbSymbolTableRecord
100
AcDbLayerTableRecord
  2
t_
 70
0
  6
CONTINUOUS
  0
LAYER
  5
7f
100
AcDbSymbolTableRecord
100
AcDbLayerTableRecord
  2
u_
 70
0
  6
CONTINUOUS
  0
LAYER
  5
80
100
AcDbSymbolTableRecord
100
AcDbLayerTableRecord
  2
v_
 70
0
  6
CONTINUOUS
  0
LAYER
  5
81
100
AcDbSymbolTableRecord
100
AcDbLayerTableRecord
  2
w_
 70
0
  6
CONTINUOUS
  0
LAYER
  5
82
100
AcDbSymbolTableRecord
100
AcDbLayerTableRecord
  2
x_
 70
0
  6
CONTINUOUS
  0
LAYER
  5
83
100
AcDbSymbolTableRecord
100
AcDbLayerTableRecord
  2
y_
 70
0
  6
CONTINUOUS
  0
LAYER
  5
84
100
AcDbSymbolTableRecord
100
AcDbLayerTableRecord
  2
z_
 70
0
  6
CONTINUOUS
  0
LAYER
  5
85
100
AcDbSymbolTableRecord
100
AcDbLayerTableRecord
  2
1
 70
0
  6
CONTINUOUS
  0
LAYER
  5
86
100
AcDbSymbolTableRecord
100
AcDbLayerTableRecord
  2
2
 70
0
  6
CONTINUOUS
  0
LAYER
  5
87
100
AcDbSymbolTableRecord
100
AcDbLayerTableRecord
  2
3
 70
0
  6
CONTINUOUS
  0
LAYER
  5
88
100
AcDbSymbolTableRecord
100
AcDbLayerTableRecord
  2
4
 70
0
  6
CONTINUOUS
  0
LAYER
  5
89
100
AcDbSymbolTableRecord
100
AcDbLayerTableRecord
  2
5
 70
0
  6
CONTINUOUS
  0
LAYER
  5
8a
100
AcDbSymbolTableRecord
100
AcDbLayerTableRecord
  2
6
 70
0
  6
CONTINUOUS
  0
LAYER
  5
8b
100
AcDbSymbolTableRecord
100
AcDbLayerTableRecord
  2
7
 70
0
  6
CONTINUOUS
  0
LAYER
  5
8c
100
AcDbSymbolTableRecord
100
AcDbLayerTableRecord
  2
8
 70
0
  6
CONTINUOUS
  0
LAYER
  5
8d
100
AcDbSymbolTableRecord
100
AcDbLayerTableRecord
  2
9
 70
0
  6
CONTINUOUS
  0
LAYER
  5
8e
100
AcDbSymbolTableRecord
100
AcDbLayerTableRecord
  2
~
 70
0
  6
CONTINUOUS
  0
LAYER
  5
8f
100
AcDbSymbolTableRecord
100
AcDbLayerTableRecord
  2
`
 70
0
  6
CONTINUOUS
  0
LAYER
  5
90
100
AcDbSymbolTableRecord
100
AcDbLayerTableRecord
  2
!
 70
0
  6
CONTINUOUS
  0
LAYER
  5
91
100
AcDbSymbolTableRecord
100
AcDbLayerTableRecord
  2
@
 70
0
  6
CONTINUOUS
  0
LAYER
  5
92
100
AcDbSymbolTableRecord
100
AcDbLayerTableRecord
  2
#
 70
0
  6
CONTINUOUS
  0
LAYER
  5
93
100
AcDbSymbolTableRecord
100
AcDbLayerTableRecord
  2
$
 70
0
  6
CONTINUOUS
  0
LAYER
  5
94
100
AcDbSymbolTableRecord
100
AcDbLayerTableRecord
  2
%
 70
0
  6
CONTINUOUS
  0
LAYER
  5
95
100
AcDbSymbolTableRecord
100
AcDbLayerTableRecord
  2
^
 70
0
  6
CONTINUOUS
  0
LAYER
  5
96
100
AcDbSymbolTableRecord
100
AcDbLayerTableRecord
  2
&
 70
0
  6
CONTINUOUS
  0
LAYER
  5
97
100
AcDbSymbolTableRecord
100
AcDbLayerTableRecord
  2
*
 70
0
  6
CONTINUOUS
  0
LAYER
  5
98
100
AcDbSymbolTableRecord
100
AcDbLayerTableRecord
  2
(
 70
0
  6
CONTINUOUS
  0
LAYER
  5
99
100
AcDbSymbolTableRecord
100
AcDbLayerTableRecord
  2
)
 70
0
  6
CONTINUOUS
  0
LAYER
  5
9a
100
AcDbSymbolTableRecord
100
AcDbLayerTableRecord
  2
_
 70
0
  6
CONTINUOUS
  0
LAYER
  5
9b
100
AcDbSymbolTableRecord
100
AcDbLayerTableRecord
  2
-
 70
0
  6
CONTINUOUS
  0
LAYER
  5
9c
100
AcDbSymbolTableRecord
100
AcDbLayerTableRecord
  2
+
 70
0
  6
CONTINUOUS
  0
LAYER
  5
9d
100
AcDbSymbolTableRecord
100
AcDbLayerTableRecord
  2
=
 70
0
  6
CONTINUOUS
  0
LAYER
  5
9e
100
AcDbSymbolTableRecord
100
AcDbLayerTableRecord
  2
{
 70
0
  6
CONTINUOUS
  0
LAYER
  5
9f
100
AcDbSymbolTableRecord
100
AcDbLayerTableRecord
  2
}
 70
0
  6
CONTINUOUS
  0
LAYER
  5
a0
100
AcDbSymbolTableRecord
100
AcDbLayerTableRecord
  2
[
 70
0
  6
CONTINUOUS
  0
LAYER
  5
a1
100
AcDbSymbolTableRecord
100
AcDbLayerTableRecord
  2
]
 70
0
  6
CONTINUOUS
  0
LAYER
  5
a2
100
AcDbSymbolTableRecord
100
AcDbLayerTableRecord
  2
|
 70
0
  6
CONTINUOUS
  0
LAYER
  5
a3
100
AcDbSymbolTableRecord
100
AcDbLayerTableRecord
  2
\
 70
0
  6
CONTINUOUS
  0
LAYER
  5
a4
100
AcDbSymbolTableRecord
100
AcDbLayerTableRecord
  2
:
 70
0
  6
CONTINUOUS
  0
LAYER
  5
a5
100
AcDbSymbolTableRecord
100
AcDbLayerTableRecord
  2
;
 70
0
  6
CONTINUOUS
  0
LAYER
  5
a6
100
AcDbSymbolTableRecord
100
AcDbLayerTableRecord
  2
'
 70
0
  6
CONTINUOUS
  0
LAYER
  5
a7
100
AcDbSymbolTableRecord
100
AcDbLayerTableRecord
  2
"
 70
0
  6
CONTINUOUS
  0
LAYER
  5
a8
100
AcDbSymbolTableRecord
100
AcDbLayerTableRecord
  2
,
 70
0
  6
CONTINUOUS
  0
LAYER
  5
a9
100
AcDbSymbolTableRecord
100
AcDbLayerTableRecord
  2
.
 70
0
  6
CONTINUOUS
  0
LAYER
  5
aa
100
AcDbSymbolTableRecord
100
AcDbLayerTableRecord
  2
/
 70
0
  6
CONTINUOUS
  0
LAYER
  5
ab
100
AcDbSymbolTableRecord
100
AcDbLayerTableRecord
  2
<
 70
0
  6
CONTINUOUS
  0
LAYER
  5
ac
100
AcDbSymbolTableRecord
100
AcDbLayerTableRecord
  2
>
 70
0
  6
CONTINUOUS
  0
LAYER
  5
ad
100
AcDbSymbolTableRecord
100
AcDbLayerTableRecord
  2
?
 70
0
  6
CONTINUOUS
  0
ENDTAB
  0
TABLE
  2
STYLE
  5
3
330
0
100
AcDbSymbolTable
 70
     1
  0
STYLE
  5
11
330
3
100
AcDbSymbolTableRecord
100
AcDbTextStyleTableRecord
  2
STANDARD
 70
     0
 40
0.0
 41
1.0
 50
0.0
 71
     0
 42
2.5
  3
txt
  4

  0
ENDTAB
  0
TABLE
  2
VIEW
  5
6
330
0
100
AcDbSymbolTable
 70
     0
  0
ENDTAB
  0
TABLE
  2
UCS
  5
7
330
0
100
AcDbSymbolTable
 70
     0
  0
ENDTAB
  0
TABLE
  2
APPID
  5
9
330
0
100
AcDbSymbolTable
 70
     2
  0
APPID
  5
12
330
9
100
AcDbSymbolTableRecord
100
AcDbRegAppTableRecord
  2
ACAD
 70
     0
  0
ENDTAB
  0
TABLE
  2
DIMSTYLE
  5
A
330
0
100
AcDbSymbolTable
 70
     1
  0
DIMSTYLE
105
27
330
A
100
AcDbSymbolTableRecord
100
AcDbDimStyleTableRecord
  2
ISO-25
 70
     0
  3

  4

  5

  6

  7

 40
1.0
 41
2.5
 42
0.625
 43
3.75
 44
1.25
 45
0.0
 46
0.0
 47
0.0
 48
0.0
140
2.5
141
2.5
142
0.0
143
0.03937007874016
144
1.0
145
0.0
146
1.0
147
0.625
 71
     0
 72
     0
 73
     0
 74
     0
 75
     0
 76
     0
 77
     1
 78
     8
170
     0
171
     3
172
     1
173
     0
174
     0
175
     0
176
     0
177
     0
178
     0
270
     2
271
     2
272
     2
273
     2
274
     3
340
11
275
     0
280
     0
281
     0
282
     0
283
     0
284
     8
285
     0
286
     0
287
     3
288
     0
  0
ENDTAB
  0
TABLE
  2
BLOCK_RECORD
  5
1
330
0
100
AcDbSymbolTable
 70
     1
  0
BLOCK_RECORD
  5
1F
330
1
100
AcDbSymbolTableRecord
100
AcDbBlockTableRecord
  2
*MODEL_SPACE
  0
BLOCK_RECORD
  5
1B
330
1
100
AcDbSymbolTableRecord
100
AcDbBlockTableRecord
  2
*PAPER_SPACE
  0
ENDTAB
  0
ENDSEC
  0
SECTION
  2
BLOCKS
  0
BLOCK
  5
20
330
1F
100
AcDbEntity
  8
0
100
AcDbBlockBegin
  2
*MODEL_SPACE
 70
     0
 10
0.0
 20
0.0
 30
0.0
  3
*MODEL_SPACE
  1

  0
ENDBLK
  5
21
330
1F
100
AcDbEntity
  8
0
100
AcDbBlockEnd
  0
BLOCK
  5
1C
330
1B
100
AcDbEntity
 67
     1
  8
0
100
AcDbBlockBegin
  2
*PAPER_SPACE
  1

  0
ENDBLK
  5
1D
330
1B
100
AcDbEntity
 67
     1
  8
0
100
AcDbBlockEnd
  0
ENDSEC
  0
SECTION
  2
ENTITIES
  0
LWPOLYLINE
  5
100
100
AcDbEntity
  8
A
 62
7
100
AcDbPolyline
 90
17
 70
0
 10
4.163027
 20
8.128307
 30
0.0
 10
4.519163
 20
8.015482
 30
0.0
 10
4.811996
 20
7.699392
 30
0.0
 10
5.009658
 20
7.230862
 30
0.0
 10
5.080282
 20
6.660697
 30
0.0
 10
5.080282
 20
0.000293
 30
0.0
 10
4.318271
 20
0.000293
 30
0.0
 10
4.318271
 20
2.845253
 30
0.0
 10
0.762078
 20
2.845253
 30
0.0
 10
0.762078
 20
0.000293
 30
0.0
 10
0.000282
 20
0.000293
 30
0.0
 10
0.000282
 20
6.660697
 30
0.0
 10
0.070799
 20
7.230862
 30
0.0
 10
0.268353
 20
7.699392
 30
0.0
 10
0.561186
 20
8.015482
 30
0.0
 10
0.917322
 20
8.128307
 30
0.0
 10
4.163027
 20
8.128307
 30
0.0
  0
LWPOLYLINE
  5
101
100
AcDbEntity
  8
A
 62
7
100
AcDbPolyline
 90
9
 70
0
 10
4.318271
 20
4.064129
 30
0.0
 10
4.318271
 20
6.660697
 30
0.0
 10
4.272409
 20
6.835706
 30
0.0
 10
4.163027
 20
6.909088
 30
0.0
 10
0.917322
 20
6.909088
 30
0.0
 10
0.807940
 20
6.835706
 30
0.0
 10
0.762078
 20
6.660697
 30
0.0
 10
0.762078
 20
4.064129
 30
0.0
 10
4.318271
 20
4.064129
 30
0.0
  0
LWPOLYLINE
  5
102
100
AcDbEntity
  8
B
 62
7
100
AcDbPolyline
 90
17
 70
0
 10
4.776899
 20
4.369020
 30
0.0
 10
4.999215
 20
3.894974
 30
0.0
 10
5.080282
 20
3.285192
 30
0.0
 10
5.080282
 20
1.467903
 30
0.0
 10
5.009765
 20
0.897742
 30
0.0
 10
4.812211
 20
0.429209
 30
0.0
 10
4.519378
 20
0.113122
 30
0.0
 10
4.163027
 20
0.000293
 30
0.0
 10
0.000282
 20
0.000293
 30
0.0
 10
0.000282
 20
8.128307
 30
0.0
 10
3.951369
 20
8.128307
 30
0.0
 10
4.307721
 20
8.015482
 30
0.0
 10
4.600553
 20
7.699392
 30
0.0
 10
4.798108
 20
7.230862
 30
0.0
 10
4.868624
 20
6.660697
 30
0.0
 10
4.868624
 20
5.001193
 30
0.0
 10
4.776899
 20
4.369020
 30
0.0
  0
LWPOLYLINE
  5
103
100
AcDbEntity
  8
B
 62
7
100
AcDbPolyline
 90
13
 70
0
 10
0.917537
 20
6.909088
 30
0.0
 10
0.808156
 20
6.835706
 30
0.0
 10
0.762293
 20
6.660697
 30
0.0
 10
0.762293
 20
5.001193
 30
0.0
 10
0.808156
 20
4.826184
 30
0.0
 10
0.917537
 20
4.752802
 30
0.0
 10
3.951369
 20
4.752802
 30
0.0
 10
4.060751
 20
4.826184
 30
0.0
 10
4.106614
 20
5.001193
 30
0.0
 10
4.106614
 20
6.660697
 30
0.0
 10
4.060751
 20
6.835706
 30
0.0
 10
3.951369
 20
6.909088
 30
0.0
 10
0.917537
 20
6.909088
 30
0.0
  0
LWPOLYLINE
  5
104
100
AcDbEntity
  8
B
 62
7
100
AcDbPolyline
 90
13
 70
0
 10
4.318271
 20
3.285192
 30
0.0
 10
4.272409
 20
3.460204
 30
0.0
 10
4.163027
 20
3.533583
 30
0.0
 10
0.917537
 20
3.533583
 30
0.0
 10
0.808156
 20
3.460204
 30
0.0
 10
0.762293
 20
3.285192
 30
0.0
 10
0.762293
 20
1.467903
 30
0.0
 10
0.808156
 20
1.292894
 30
0.0
 10
0.917537
 20
1.219512
 30
0.0
 10
4.163027
 20
1.219512
 30
0.0
 10
4.272409
 20
1.292894
 30
0.0
 10
4.318271
 20
1.467903
 30
0.0
 10
4.318271
 20
3.285192
 30
0.0
  0
LWPOLYLINE
  5
105
100
AcDbEntity
  8
C
 62
7
100
AcDbPolyline
 90
21
 70
0
 10
0.920110
 20
6.909085
 30
0.0
 10
0.810422
 20
6.835702
 30
0.0
 10
0.764431
 20
6.660692
 30
0.0
 10
0.764431
 20
1.467901
 30
0.0
 10
0.810422
 20
1.292888
 30
0.0
 10
0.920110
 20
1.219508
 30
0.0
 10
5.080282
 20
1.219508
 30
0.0
 10
5.080282
 20
0.000288
 30
0.0
 10
0.920110
 20
0.000288
 30
0.0
 10
0.562759
 20
0.113116
 30
0.0
 10
0.269105
 20
0.429202
 30
0.0
 10
0.070997
 20
0.897736
 30
0.0
 10
0.000282
 20
1.467901
 30
0.0
 10
0.000282
 20
6.660692
 30
0.0
 10
0.070997
 20
7.230857
 30
0.0
 10
0.269105
 20
7.699387
 30
0.0
 10
0.562759
 20
8.015477
 30
0.0
 10
0.920110
 20
8.128301
 30
0.0
 10
5.080282
 20
8.128301
 30
0.0
 10
5.080282
 20
6.909085
 30
0.0
 10
0.920110
 20
6.909085
 30
0.0
  0
LWPOLYLINE
  5
106
100
AcDbEntity
  8
D
 62
7
100
AcDbPolyline
 90
13
 70
0
 10
4.163027
 20
8.128307
 30
0.0
 10
4.519163
 20
8.015482
 30
0.0
 10
4.811996
 20
7.699392
 30
0.0
 10
5.009658
 20
7.230862
 30
0.0
 10
5.080282
 20
6.660697
 30
0.0
 10
5.080282
 20
1.467903
 30
0.0
 10
5.009658
 20
0.897742
 30
0.0
 10
4.811996
 20
0.429209
 30
0.0
 10
4.519163
 20
0.113122
 30
0.0
 10
4.163027
 20
0.000293
 30
0.0
 10
0.000282
 20
0.000293
 30
0.0
 10
0.000282
 20
8.128307
 30
0.0
 10
4.163027
 20
8.128307
 30
0.0
  0
LWPOLYLINE
  5
107
100
AcDbEntity
  8
D
 62
7
100
AcDbPolyline
 90
13
 70
0
 10
4.318271
 20
6.660697
 30
0.0
 10
4.272409
 20
6.835706
 30
0.0
 10
4.163027
 20
6.909088
 30
0.0
 10
0.917322
 20
6.909088
 30
0.0
 10
0.807940
 20
6.835706
 30
0.0
 10
0.762078
 20
6.660697
 30
0.0
 10
0.762078
 20
1.467903
 30
0.0
 10
0.807940
 20
1.292894
 30
0.0
 10
0.917322
 20
1.219512
 30
0.0
 10
4.163027
 20
1.219512
 30
0.0
 10
4.272409
 20
1.292894
 30
0.0
 10
4.318271
 20
1.467903
 30
0.0
 10
4.318271
 20
6.660697
 30
0.0
  0
LWPOLYLINE
  5
108
100
AcDbEntity
  8
E
 62
7
100
AcDbPolyline
 90
13
 70
0
 10
5.080282
 20
6.909086
 30
0.0
 10
0.831367
 20
6.909086
 30
0.0
 10
0.831367
 20
4.673909
 30
0.0
 10
4.248963
 20
4.673909
 30
0.0
 10
4.248963
 20
3.454690
 30
0.0
 10
0.831367
 20
3.454690
 30
0.0
 10
0.831367
 20
1.219510
 30
0.0
 10
5.080282
 20
1.219510
 30
0.0
 10
5.080282
 20
0.000291
 30
0.0
 10
0.000282
 20
0.000291
 30
0.0
 10
0.000282
 20
8.128305
 30
0.0
 10
5.080282
 20
8.128305
 30
0.0
 10
5.080282
 20
6.909086
 30
0.0
  0
LWPOLYLINE
  5
109
100
AcDbEntity
  8
F
 62
7
100
AcDbPolyline
 90
11
 70
0
 10
5.080282
 20
8.128307
 30
0.0
 10
5.080282
 20
6.909088
 30
0.0
 10
0.831367
 20
6.909088
 30
0.0
 10
0.831367
 20
4.673911
 30
0.0
 10
4.248962
 20
4.673911
 30
0.0
 10
4.248962
 20
3.454693
 30
0.0
 10
0.831367
 20
3.454693
 30
0.0
 10
0.831367
 20
0.000293
 30
0.0
 10
0.000282
 20
0.000293
 30
0.0
 10
0.000282
 20
8.128307
 30
0.0
 10
5.080282
 20
8.128307
 30
0.0
  0
LWPOLYLINE
  5
10a
100
AcDbEntity
  8
G
 62
7
100
AcDbPolyline
 90
39
 70
0
 10
5.080282
 20
6.175282
 30
0.0
 10
4.318271
 20
6.175282
 30
0.0
 10
4.318271
 20
6.660697
 30
0.0
 10
4.272409
 20
6.835706
 30
0.0
 10
4.163027
 20
6.909088
 30
0.0
 10
0.917537
 20
6.909088
 30
0.0
 10
0.808156
 20
6.835706
 30
0.0
 10
0.762293
 20
6.660697
 30
0.0
 10
0.762293
 20
1.467903
 30
0.0
 10
0.808156
 20
1.292894
 30
0.0
 10
0.917537
 20
1.219512
 30
0.0
 10
4.163027
 20
1.219512
 30
0.0
 10
4.272409
 20
1.292894
 30
0.0
 10
4.318271
 20
1.467903
 30
0.0
 10
4.318271
 20
3.229038
 30
0.0
 10
3.118734
 20
3.229038
 30
0.0
 10
3.118734
 20
4.448257
 30
0.0
 10
5.080282
 20
4.448257
 30
0.0
 10
5.080282
 20
1.467903
 30
0.0
 10
5.009765
 20
0.897742
 30
0.0
 10
4.812211
 20
0.429209
 30
0.0
 10
4.519378
 20
0.113122
 30
0.0
 10
4.163027
 20
0.000293
 30
0.0
 10
0.917537
 20
0.000293
 30
0.0
 10
0.561186
 20
0.113122
 30
0.0
 10
0.268353
 20
0.429209
 30
0.0
 10
0.070799
 20
0.897742
 30
0.0
 10
0.000282
 20
1.467903
 30
0.0
 10
0.000282
 20
6.660697
 30
0.0
 10
0.070799
 20
7.230862
 30
0.0
 10
0.268353
 20
7.699392
 30
0.0
 10
0.561186
 20
8.015482
 30
0.0
 10
0.917537
 20
8.128307
 30
0.0
 10
4.163027
 20
8.128307
 30
0.0
 10
4.519378
 20
8.015482
 30
0.0
 10
4.812211
 20
7.699392
 30
0.0
 10
5.009765
 20
7.230862
 30
0.0
 10
5.080282
 20
6.660697
 30
0.0
 10
5.080282
 20
6.175282
 30
0.0
  0
LWPOLYLINE
  5
10b
100
AcDbEntity
  8
H
 62
7
100
AcDbPolyline
 90
13
 70
0
 10
5.080282
 20
8.128305
 30
0.0
 10
5.080282
 20
0.000291
 30
0.0
 10
4.335846
 20
0.000291
 30
0.0
 10
4.335846
 20
3.454687
 30
0.0
 10
0.744718
 20
3.454687
 30
0.0
 10
0.744718
 20
0.000291
 30
0.0
 10
0.000282
 20
0.000291
 30
0.0
 10
0.000282
 20
8.128305
 30
0.0
 10
0.744718
 20
8.128305
 30
0.0
 10
0.744718
 20
4.673908
 30
0.0
 10
4.335846
 20
4.673908
 30
0.0
 10
4.335846
 20
8.128305
 30
0.0
 10
5.080282
 20
8.128305
 30
0.0
  0
LWPOLYLINE
  5
10c
100
AcDbEntity
  8
I
 62
7
100
AcDbPolyline
 90
13
 70
0
 10
3.764494
 20
0.000288
 30
0.0
 10
1.294141
 20
0.000288
 30
0.0
 10
1.272211
 20
1.197850
 30
0.0
 10
2.115417
 20
1.153753
 30
0.0
 10
2.115417
 20
6.930730
 30
0.0
 10
1.316071
 20
6.974827
 30
0.0
 10
1.272211
 20
8.128288
 30
0.0
 10
3.764494
 20
8.128288
 30
0.0
 10
3.764494
 20
6.974827
 30
0.0
 10
2.877428
 20
6.930730
 30
0.0
 10
2.877428
 20
1.153753
 30
0.0
 10
3.742564
 20
1.175926
 30
0.0
 10
3.764494
 20
0.000288
 30
0.0
  0
LWPOLYLINE
  5
10d
100
AcDbEntity
  8
J
 62
7
100
AcDbPolyline
 90
21
 70
0
 10
4.318271
 20
8.128307
 30
0.0
 10
5.080282
 20
8.128307
 30
0.0
 10
5.080282
 20
1.467903
 30
0.0
 10
5.009766
 20
0.897742
 30
0.0
 10
4.812211
 20
0.429209
 30
0.0
 10
4.519379
 20
0.113122
 30
0.0
 10
4.163027
 20
0.000293
 30
0.0
 10
0.917537
 20
0.000293
 30
0.0
 10
0.561186
 20
0.113122
 30
0.0
 10
0.268353
 20
0.429209
 30
0.0
 10
0.070799
 20
0.897742
 30
0.0
 10
0.000282
 20
1.467903
 30
0.0
 10
0.000282
 20
2.258210
 30
0.0
 10
0.762293
 20
2.258210
 30
0.0
 10
0.762293
 20
1.467903
 30
0.0
 10
0.808156
 20
1.292894
 30
0.0
 10
0.917537
 20
1.219512
 30
0.0
 10
4.163027
 20
1.219512
 30
0.0
 10
4.272409
 20
1.292894
 30
0.0
 10
4.318271
 20
1.467903
 30
0.0
 10
4.318271
 20
8.128307
 30
0.0
  0
LWPOLYLINE
  5
10e
100
AcDbEntity
  8
K
 62
7
100
AcDbPolyline
 90
16
 70
0
 10
5.080283
 20
8.128311
 30
0.0
 10
5.080283
 20
7.958811
 30
0.0
 10
2.961751
 20
4.064131
 30
0.0
 10
5.080283
 20
0.169795
 30
0.0
 10
5.080283
 20
0.000295
 30
0.0
 10
4.142044
 20
0.000295
 30
0.0
 10
2.257961
 20
3.454695
 30
0.0
 10
0.791991
 20
3.454695
 30
0.0
 10
0.791991
 20
0.000295
 30
0.0
 10
0.000282
 20
0.000295
 30
0.0
 10
0.000282
 20
8.128311
 30
0.0
 10
0.791991
 20
8.128311
 30
0.0
 10
0.791991
 20
4.673915
 30
0.0
 10
2.257961
 20
4.673915
 30
0.0
 10
4.142044
 20
8.128311
 30
0.0
 10
5.080283
 20
8.128311
 30
0.0
  0
LWPOLYLINE
  5
10f
100
AcDbEntity
  8
L
 62
7
100
AcDbPolyline
 90
7
 70
0
 10
0.000282
 20
8.139677
 30
0.0
 10
0.762293
 20
8.139677
 30
0.0
 10
0.762293
 20
1.219512
 30
0.0
 10
5.080282
 20
1.219512
 30
0.0
 10
5.080282
 20
0.000293
 30
0.0
 10
0.000282
 20
0.000293
 30
0.0
 10
0.000282
 20
8.139677
 30
0.0
  0
LWPOLYLINE
  5
110
100
AcDbEntity
  8
M
 62
7
100
AcDbPolyline
 90
13
 70
0
 10
4.277217
 20
8.128314
 30
0.0
 10
5.080282
 20
8.128314
 30
0.0
 10
5.080282
 20
0.000299
 30
0.0
 10
4.261555
 20
0.000299
 30
0.0
 10
4.261555
 20
6.208896
 30
0.0
 10
2.540187
 20
2.472501
 30
0.0
 10
0.813647
 20
6.208896
 30
0.0
 10
0.813647
 20
0.000299
 30
0.0
 10
0.000282
 20
0.000299
 30
0.0
 10
0.000282
 20
8.128314
 30
0.0
 10
0.797078
 20
8.128314
 30
0.0
 10
2.540187
 20
4.369025
 30
0.0
 10
4.277217
 20
8.128314
 30
0.0
  0
LWPOLYLINE
  5
111
100
AcDbEntity
  8
N
 62
7
100
AcDbPolyline
 90
11
 70
0
 10
4.318271
 20
8.128307
 30
0.0
 10
5.080282
 20
8.128307
 30
0.0
 10
5.080282
 20
0.000293
 30
0.0
 10
4.177238
 20
0.000293
 30
0.0
 10
0.762293
 20
6.502567
 30
0.0
 10
0.762293
 20
0.000293
 30
0.0
 10
0.000282
 20
0.000293
 30
0.0
 10
0.000282
 20
8.128307
 30
0.0
 10
0.903326
 20
8.128307
 30
0.0
 10
4.318271
 20
1.626034
 30
0.0
 10
4.318271
 20
8.128307
 30
0.0
  0
LWPOLYLINE
  5
112
100
AcDbEntity
  8
O
 62
7
100
AcDbPolyline
 90
21
 70
0
 10
4.163242
 20
8.128307
 30
0.0
 10
4.519378
 20
8.015482
 30
0.0
 10
4.812211
 20
7.699392
 30
0.0
 10
5.009766
 20
7.230862
 30
0.0
 10
5.080282
 20
6.660697
 30
0.0
 10
5.080282
 20
1.467903
 30
0.0
 10
5.009766
 20
0.897742
 30
0.0
 10
4.812211
 20
0.429209
 30
0.0
 10
4.519378
 20
0.113122
 30
0.0
 10
4.163242
 20
0.000293
 30
0.0
 10
0.917537
 20
0.000293
 30
0.0
 10
0.561294
 20
0.113122
 30
0.0
 10
0.268461
 20
0.429209
 30
0.0
 10
0.070907
 20
0.897742
 30
0.0
 10
0.000282
 20
1.467903
 30
0.0
 10
0.000282
 20
6.660697
 30
0.0
 10
0.070907
 20
7.230862
 30
0.0
 10
0.268461
 20
7.699392
 30
0.0
 10
0.561294
 20
8.015482
 30
0.0
 10
0.917537
 20
8.128307
 30
0.0
 10
4.163242
 20
8.128307
 30
0.0
  0
LWPOLYLINE
  5
113
100
AcDbEntity
  8
O
 62
7
100
AcDbPolyline
 90
13
 70
0
 10
4.163242
 20
1.219512
 30
0.0
 10
4.272516
 20
1.292894
 30
0.0
 10
4.318271
 20
1.467903
 30
0.0
 10
4.318271
 20
6.660697
 30
0.0
 10
4.272516
 20
6.835706
 30
0.0
 10
4.163242
 20
6.909088
 30
0.0
 10
0.917537
 20
6.909088
 30
0.0
 10
0.808156
 20
6.835706
 30
0.0
 10
0.762293
 20
6.660697
 30
0.0
 10
0.762293
 20
1.467903
 30
0.0
 10
0.808156
 20
1.292894
 30
0.0
 10
0.917537
 20
1.219512
 30
0.0
 10
4.163242
 20
1.219512
 30
0.0
  0
LWPOLYLINE
  5
114
100
AcDbEntity
  8
P
 62
7
100
AcDbPolyline
 90
17
 70
0
 10
4.163027
 20
8.116937
 30
0.0
 10
4.519378
 20
7.998429
 30
0.0
 10
4.812211
 20
7.682339
 30
0.0
 10
5.009766
 20
7.219492
 30
0.0
 10
5.080282
 20
6.649327
 30
0.0
 10
5.080282
 20
4.369020
 30
0.0
 10
5.009766
 20
3.798856
 30
0.0
 10
4.812211
 20
3.336180
 30
0.0
 10
4.519378
 20
3.020094
 30
0.0
 10
4.163027
 20
2.901410
 30
0.0
 10
0.917537
 20
2.901410
 30
0.0
 10
0.836362
 20
2.907086
 30
0.0
 10
0.762293
 20
2.924150
 30
0.0
 10
0.762293
 20
0.000297
 30
0.0
 10
0.000282
 20
0.000297
 30
0.0
 10
0.000282
 20
8.116941
 30
0.0
 10
4.163027
 20
8.116937
 30
0.0
  0
LWPOLYLINE
  5
115
100
AcDbEntity
  8
P
 62
7
100
AcDbPolyline
 90
13
 70
0
 10
4.318271
 20
6.649327
 30
0.0
 10
4.272409
 20
6.824340
 30
0.0
 10
4.163027
 20
6.897718
 30
0.0
 10
0.917537
 20
6.897718
 30
0.0
 10
0.808156
 20
6.824340
 30
0.0
 10
0.762293
 20
6.649327
 30
0.0
 10
0.762293
 20
4.369020
 30
0.0
 10
0.808156
 20
4.194008
 30
0.0
 10
0.917537
 20
4.120629
 30
0.0
 10
4.163027
 20
4.120629
 30
0.0
 10
4.272409
 20
4.194008
 30
0.0
 10
4.318271
 20
4.369020
 30
0.0
 10
4.318271
 20
6.649327
 30
0.0
  0
LWPOLYLINE
  5
116
100
AcDbEntity
  8
Q
 62
7
100
AcDbPolyline
 90
21
 70
0
 10
5.080282
 20
1.219504
 30
0.0
 10
5.080282
 20
0.000287
 30
0.0
 10
0.815593
 20
0.000287
 30
0.0
 10
0.498943
 20
0.113112
 30
0.0
 10
0.238655
 20
0.429199
 30
0.0
 10
0.063057
 20
0.897733
 30
0.0
 10
0.000282
 20
1.467896
 30
0.0
 10
0.000282
 20
6.660678
 30
0.0
 10
0.063057
 20
7.230841
 30
0.0
 10
0.238655
 20
7.699375
 30
0.0
 10
0.498943
 20
8.015462
 30
0.0
 10
0.815593
 20
8.128287
 30
0.0
 10
3.700569
 20
8.128287
 30
0.0
 10
4.017124
 20
8.015462
 30
0.0
 10
4.277411
 20
7.699375
 30
0.0
 10
4.453009
 20
7.230841
 30
0.0
 10
4.515689
 20
6.660678
 30
0.0
 10
4.515689
 20
1.467896
 30
0.0
 10
4.512626
 20
1.338017
 30
0.0
 10
4.503249
 20
1.219504
 30
0.0
 10
5.080282
 20
1.219504
 30
0.0
  0
LWPOLYLINE
  5
117
100
AcDbEntity
  8
Q
 62
7
100
AcDbPolyline
 90
13
 70
0
 10
3.700569
 20
1.219504
 30
0.0
 10
3.797699
 20
1.292886
 30
0.0
 10
3.838368
 20
1.467896
 30
0.0
 10
3.838368
 20
6.660678
 30
0.0
 10
3.797699
 20
6.835688
 30
0.0
 10
3.700569
 20
6.909070
 30
0.0
 10
0.815593
 20
6.909070
 30
0.0
 10
0.718368
 20
6.835688
 30
0.0
 10
0.677603
 20
6.660678
 30
0.0
 10
0.677603
 20
1.467896
 30
0.0
 10
0.718368
 20
1.292886
 30
0.0
 10
0.815593
 20
1.219504
 30
0.0
 10
3.700569
 20
1.219504
 30
0.0
  0
LWPOLYLINE
  5
118
100
AcDbEntity
  8
R
 62
7
100
AcDbPolyline
 90
22
 70
0
 10
5.080282
 20
4.369020
 30
0.0
 10
5.009766
 20
3.798856
 30
0.0
 10
4.812211
 20
3.336180
 30
0.0
 10
4.519378
 20
3.020094
 30
0.0
 10
4.163027
 20
2.901410
 30
0.0
 10
3.647986
 20
2.901410
 30
0.0
 10
5.080282
 20
0.169794
 30
0.0
 10
5.080282
 20
0.000293
 30
0.0
 10
4.177238
 20
0.000293
 30
0.0
 10
2.653217
 20
2.901410
 30
0.0
 10
0.917537
 20
2.901410
 30
0.0
 10
0.836362
 20
2.907086
 30
0.0
 10
0.762293
 20
2.924150
 30
0.0
 10
0.762293
 20
0.000297
 30
0.0
 10
0.000282
 20
0.000297
 30
0.0
 10
0.000282
 20
8.116941
 30
0.0
 10
4.163027
 20
8.116941
 30
0.0
 10
4.519378
 20
7.998432
 30
0.0
 10
4.812211
 20
7.682342
 30
0.0
 10
5.009766
 20
7.219495
 30
0.0
 10
5.080282
 20
6.649331
 30
0.0
 10
5.080282
 20
4.369020
 30
0.0
  0
LWPOLYLINE
  5
119
100
AcDbEntity
  8
R
 62
7
100
AcDbPolyline
 90
13
 70
0
 10
4.163027
 20
4.120629
 30
0.0
 10
4.272409
 20
4.194008
 30
0.0
 10
4.318271
 20
4.369020
 30
0.0
 10
4.318271
 20
6.649327
 30
0.0
 10
4.272409
 20
6.824340
 30
0.0
 10
4.163027
 20
6.897718
 30
0.0
 10
0.917537
 20
6.897718
 30
0.0
 10
0.808156
 20
6.824340
 30
0.0
 10
0.762293
 20
6.649327
 30
0.0
 10
0.762293
 20
4.369020
 30
0.0
 10
0.808156
 20
4.194008
 30
0.0
 10
0.917537
 20
4.120629
 30
0.0
 10
4.163027
 20
4.120629
 30
0.0
  0
LWPOLYLINE
  5
11a
100
AcDbEntity
  8
S
 62
7
100
AcDbPolyline
 90
53
 70
0
 10
5.080282
 20
6.186652
 30
0.0
 10
4.318271
 20
6.186652
 30
0.0
 10
4.318271
 20
6.660697
 30
0.0
 10
4.272409
 20
6.835706
 30
0.0
 10
4.163027
 20
6.909088
 30
0.0
 10
0.917537
 20
6.909088
 30
0.0
 10
0.808156
 20
6.835706
 30
0.0
 10
0.762293
 20
6.660697
 30
0.0
 10
0.762293
 20
4.922303
 30
0.0
 10
0.808156
 20
4.747290
 30
0.0
 10
0.917537
 20
4.673911
 30
0.0
 10
4.163027
 20
4.673911
 30
0.0
 10
4.519379
 20
4.561082
 30
0.0
 10
4.812211
 20
4.244996
 30
0.0
 10
5.009766
 20
3.776462
 30
0.0
 10
5.080282
 20
3.206301
 30
0.0
 10
5.080282
 20
1.467903
 30
0.0
 10
5.009766
 20
0.897742
 30
0.0
 10
4.812211
 20
0.429209
 30
0.0
 10
4.519379
 20
0.113122
 30
0.0
 10
4.163027
 20
0.000293
 30
0.0
 10
0.917537
 20
0.000293
 30
0.0
 10
0.561186
 20
0.113122
 30
0.0
 10
0.268461
 20
0.429209
 30
0.0
 10
0.070907
 20
0.897742
 30
0.0
 10
0.000282
 20
1.467903
 30
0.0
 10
0.000282
 20
1.941949
 30
0.0
 10
0.762293
 20
1.941949
 30
0.0
 10
0.762293
 20
1.467903
 30
0.0
 10
0.808156
 20
1.292894
 30
0.0
 10
0.917537
 20
1.219512
 30
0.0
 10
4.163027
 20
1.219512
 30
0.0
 10
4.272409
 20
1.292894
 30
0.0
 10
4.318271
 20
1.467903
 30
0.0
 10
4.318271
 20
3.206301
 30
0.0
 10
4.272409
 20
3.381310
 30
0.0
 10
4.163027
 20
3.454693
 30
0.0
 10
0.917537
 20
3.454693
 30
0.0
 10
0.561186
 20
3.567518
 30
0.0
 10
0.268461
 20
3.883604
 30
0.0
 10
0.070907
 20
4.352138
 30
0.0
 10
0.000282
 20
4.922303
 30
0.0
 10
0.000282
 20
6.660697
 30
0.0
 10
0.070907
 20
7.230862
 30
0.0
 10
0.268461
 20
7.699392
 30
0.0
 10
0.561186
 20
8.015482
 30
0.0
 10
0.917537
 20
8.128307
 30
0.0
 10
4.163027
 20
8.128307
 30
0.0
 10
4.519379
 20
8.015482
 30
0.0
 10
4.812211
 20
7.699392
 30
0.0
 10
5.009766
 20
7.230862
 30
0.0
 10
5.080282
 20
6.660697
 30
0.0
 10
5.080282
 20
6.186652
 30
0.0
  0
LWPOLYLINE
  5
11b
100
AcDbEntity
  8
T
 62
7
100
AcDbPolyline
 90
9
 70
0
 10
5.080282
 20
8.128307
 30
0.0
 10
5.080282
 20
6.909088
 30
0.0
 10
2.921288
 20
6.909088
 30
0.0
 10
2.921288
 20
0.000293
 30
0.0
 10
2.159277
 20
0.000293
 30
0.0
 10
2.159277
 20
6.909088
 30
0.0
 10
0.000282
 20
6.909088
 30
0.0
 10
0.000282
 20
8.128307
 30
0.0
 10
5.080282
 20
8.128307
 30
0.0
  0
LWPOLYLINE
  5
11c
100
AcDbEntity
  8
U
 62
7
100
AcDbPolyline
 90
21
 70
0
 10
4.318271
 20
8.128307
 30
0.0
 10
5.080282
 20
8.128307
 30
0.0
 10
5.080282
 20
1.467903
 30
0.0
 10
5.009766
 20
0.897742
 30
0.0
 10
4.812211
 20
0.429209
 30
0.0
 10
4.519378
 20
0.113122
 30
0.0
 10
4.163242
 20
0.000293
 30
0.0
 10
0.917537
 20
0.000293
 30
0.0
 10
0.561294
 20
0.113122
 30
0.0
 10
0.268461
 20
0.429209
 30
0.0
 10
0.070907
 20
0.897742
 30
0.0
 10
0.000282
 20
1.467903
 30
0.0
 10
0.000282
 20
8.128307
 30
0.0
 10
0.762293
 20
8.128307
 30
0.0
 10
0.762293
 20
1.467903
 30
0.0
 10
0.808156
 20
1.292894
 30
0.0
 10
0.917537
 20
1.219512
 30
0.0
 10
4.163242
 20
1.219512
 30
0.0
 10
4.272516
 20
1.292894
 30
0.0
 10
4.318271
 20
1.467903
 30
0.0
 10
4.318271
 20
8.128307
 30
0.0
  0
LWPOLYLINE
  5
11d
100
AcDbEntity
  8
V
 62
7
100
AcDbPolyline
 90
8
 70
0
 10
4.409476
 20
8.128319
 30
0.0
 10
5.080282
 20
8.128319
 30
0.0
 10
2.835071
 20
0.000304
 30
0.0
 10
2.250777
 20
0.000304
 30
0.0
 10
0.000282
 20
8.128319
 30
0.0
 10
0.676537
 20
8.128319
 30
0.0
 10
2.543006
 20
1.377654
 30
0.0
 10
4.409476
 20
8.128319
 30
0.0
  0
LWPOLYLINE
  5
11e
100
AcDbEntity
  8
W
 62
7
100
AcDbPolyline
 90
16
 70
0
 10
5.080282
 20
8.128316
 30
0.0
 10
3.880038
 20
0.000299
 30
0.0
 10
3.477021
 20
0.000299
 30
0.0
 10
2.537906
 20
6.333420
 30
0.0
 10
1.603544
 20
0.000299
 30
0.0
 10
1.594317
 20
0.011685
 30
0.0
 10
1.598931
 20
0.000299
 30
0.0
 10
1.200387
 20
0.000299
 30
0.0
 10
0.000282
 20
8.128316
 30
0.0
 10
0.649023
 20
8.128316
 30
0.0
 10
1.382977
 20
2.483593
 30
0.0
 10
2.135858
 20
8.128316
 30
0.0
 10
2.944714
 20
8.128316
 30
0.0
 10
3.678538
 20
2.483531
 30
0.0
 10
4.412223
 20
8.128254
 30
0.0
 10
5.080282
 20
8.128316
 30
0.0
  0
LWPOLYLINE
  5
11f
100
AcDbEntity
  8
X
 62
7
100
AcDbPolyline
 90
17
 70
0
 10
5.080564
 20
8.128307
 30
0.0
 10
5.080564
 20
7.958810
 30
0.0
 10
3.034612
 20
4.064129
 30
0.0
 10
5.080564
 20
0.169794
 30
0.0
 10
5.080564
 20
0.000293
 30
0.0
 10
4.177520
 20
0.000293
 30
0.0
 10
2.540672
 20
3.116037
 30
0.0
 10
0.903824
 20
0.000293
 30
0.0
 10
0.000564
 20
0.000293
 30
0.0
 10
0.000564
 20
0.169794
 30
0.0
 10
2.039627
 20
4.064129
 30
0.0
 10
0.000564
 20
7.958810
 30
0.0
 10
0.000564
 20
8.128307
 30
0.0
 10
0.903824
 20
8.128307
 30
0.0
 10
2.540672
 20
5.012563
 30
0.0
 10
4.177520
 20
8.128307
 30
0.0
 10
5.080564
 20
8.128307
 30
0.0
  0
LWPOLYLINE
  5
120
100
AcDbEntity
  8
Y
 62
7
100
AcDbPolyline
 90
10
 70
0
 10
5.080282
 20
8.128297
 30
0.0
 10
2.895623
 20
3.048157
 30
0.0
 10
2.895623
 20
0.000281
 30
0.0
 10
2.184941
 20
0.000281
 30
0.0
 10
2.184941
 20
3.048157
 30
0.0
 10
0.000282
 20
8.128297
 30
0.0
 10
0.836071
 20
8.128297
 30
0.0
 10
2.540383
 20
4.425507
 30
0.0
 10
4.238067
 20
8.128297
 30
0.0
 10
5.080282
 20
8.128297
 30
0.0
  0
LWPOLYLINE
  5
121
100
AcDbEntity
  8
Z
 62
7
100
AcDbPolyline
 90
11
 70
0
 10
0.000282
 20
8.128307
 30
0.0
 10
5.080282
 20
8.128307
 30
0.0
 10
5.080282
 20
6.683434
 30
0.0
 10
1.016368
 20
1.219512
 30
0.0
 10
5.080282
 20
1.219512
 30
0.0
 10
5.080282
 20
0.000293
 30
0.0
 10
0.000282
 20
0.000293
 30
0.0
 10
0.000282
 20
1.445167
 30
0.0
 10
4.064411
 20
6.909088
 30
0.0
 10
0.000282
 20
6.909088
 30
0.0
 10
0.000282
 20
8.128307
 30
0.0
  0
LWPOLYLINE
  5
122
100
AcDbEntity
  8
a_
 62
7
100
AcDbPolyline
 90
19
 70
0
 10
3.960911
 20
6.547698
 30
0.0
 10
4.395784
 20
6.434872
 30
0.0
 10
4.753142
 20
6.118782
 30
0.0
 10
4.994228
 20
5.650251
 30
0.0
 10
5.080283
 20
5.080430
 30
0.0
 10
5.080283
 20
0.000293
 30
0.0
 10
1.119653
 20
0.000293
 30
0.0
 10
0.684780
 20
0.113119
 30
0.0
 10
0.327422
 20
0.429209
 30
0.0
 10
0.086337
 20
0.897741
 30
0.0
 10
0.000282
 20
1.467904
 30
0.0
 10
0.000282
 20
3.883606
 30
0.0
 10
4.150364
 20
3.883606
 30
0.0
 10
4.150364
 20
5.080430
 30
0.0
 10
4.094395
 20
5.255269
 30
0.0
 10
3.960911
 20
5.328476
 30
0.0
 10
0.000282
 20
5.328476
 30
0.0
 10
0.000282
 20
6.547698
 30
0.0
 10
3.960911
 20
6.547698
 30
0.0
  0
LWPOLYLINE
  5
123
100
AcDbEntity
  8
a_
 62
7
100
AcDbPolyline
 90
7
 70
0
 10
4.150364
 20
2.664385
 30
0.0
 10
0.930201
 20
2.664385
 30
0.0
 10
0.930201
 20
1.467904
 30
0.0
 10
0.986170
 20
1.292893
 30
0.0
 10
1.119653
 20
1.219511
 30
0.0
 10
4.150364
 20
1.219511
 30
0.0
 10
4.150364
 20
2.664385
 30
0.0
  0
LWPOLYLINE
  5
124
100
AcDbEntity
  8
b_
 62
7
100
AcDbPolyline
 90
15
 70
0
 10
3.960969
 20
6.547668
 30
0.0
 10
4.395688
 20
6.434839
 30
0.0
 10
4.753028
 20
6.118754
 30
0.0
 10
4.994101
 20
5.650220
 30
0.0
 10
5.080282
 20
5.080401
 30
0.0
 10
5.080282
 20
1.467875
 30
0.0
 10
4.994101
 20
0.897709
 30
0.0
 10
4.753028
 20
0.429176
 30
0.0
 10
4.395688
 20
0.113090
 30
0.0
 10
3.960969
 20
0.000262
 30
0.0
 10
0.000282
 20
0.000262
 30
0.0
 10
0.000282
 20
8.692584
 30
0.0
 10
0.930153
 20
8.692584
 30
0.0
 10
0.930153
 20
6.547668
 30
0.0
 10
3.960969
 20
6.547668
 30
0.0
  0
LWPOLYLINE
  5
125
100
AcDbEntity
  8
b_
 62
7
100
AcDbPolyline
 90
13
 70
0
 10
4.150412
 20
5.080401
 30
0.0
 10
4.094446
 20
5.255238
 30
0.0
 10
3.960969
 20
5.328447
 30
0.0
 10
1.119595
 20
5.328447
 30
0.0
 10
0.986119
 20
5.255238
 30
0.0
 10
0.930153
 20
5.080401
 30
0.0
 10
0.930153
 20
1.467875
 30
0.0
 10
0.986119
 20
1.292863
 30
0.0
 10
1.119595
 20
1.219482
 30
0.0
 10
3.960969
 20
1.219482
 30
0.0
 10
4.094446
 20
1.292863
 30
0.0
 10
4.150412
 20
1.467875
 30
0.0
 10
4.150412
 20
5.080401
 30
0.0
  0
LWPOLYLINE
  5
126
100
AcDbEntity
  8
c_
 62
7
100
AcDbPolyline
 90
21
 70
0
 10
5.080282
 20
1.219511
 30
0.0
 10
5.080282
 20
0.000293
 30
0.0
 10
1.119653
 20
0.000293
 30
0.0
 10
0.684780
 20
0.113119
 30
0.0
 10
0.327554
 20
0.429209
 30
0.0
 10
0.086469
 20
0.897741
 30
0.0
 10
0.000282
 20
1.467904
 30
0.0
 10
0.000282
 20
5.080430
 30
0.0
 10
0.086469
 20
5.650251
 30
0.0
 10
0.327554
 20
6.118782
 30
0.0
 10
0.684780
 20
6.434872
 30
0.0
 10
1.119653
 20
6.547698
 30
0.0
 10
5.063203
 20
6.547698
 30
0.0
 10
5.063203
 20
5.328476
 30
0.0
 10
1.119653
 20
5.328476
 30
0.0
 10
0.986170
 20
5.255269
 30
0.0
 10
0.930201
 20
5.080430
 30
0.0
 10
0.930201
 20
1.467904
 30
0.0
 10
0.986170
 20
1.292893
 30
0.0
 10
1.119653
 20
1.219511
 30
0.0
 10
5.080282
 20
1.219511
 30
0.0
  0
LWPOLYLINE
  5
127
100
AcDbEntity
  8
d_
 62
7
100
AcDbPolyline
 90
15
 70
0
 10
5.080283
 20
8.692613
 30
0.0
 10
5.080283
 20
0.000293
 30
0.0
 10
1.119653
 20
0.000293
 30
0.0
 10
0.684780
 20
0.113119
 30
0.0
 10
0.327422
 20
0.429209
 30
0.0
 10
0.086337
 20
0.897741
 30
0.0
 10
0.000282
 20
1.467904
 30
0.0
 10
0.000282
 20
5.080430
 30
0.0
 10
0.086337
 20
5.650251
 30
0.0
 10
0.327422
 20
6.118782
 30
0.0
 10
0.684780
 20
6.434872
 30
0.0
 10
1.119653
 20
6.547698
 30
0.0
 10
4.150364
 20
6.547698
 30
0.0
 10
4.150364
 20
8.692613
 30
0.0
 10
5.080283
 20
8.692613
 30
0.0
  0
LWPOLYLINE
  5
128
100
AcDbEntity
  8
d_
 62
7
100
AcDbPolyline
 90
13
 70
0
 10
3.960911
 20
1.219511
 30
0.0
 10
4.094395
 20
1.292893
 30
0.0
 10
4.150364
 20
1.467904
 30
0.0
 10
4.150364
 20
5.080430
 30
0.0
 10
4.094395
 20
5.255269
 30
0.0
 10
3.960911
 20
5.328476
 30
0.0
 10
1.119653
 20
5.328476
 30
0.0
 10
0.986170
 20
5.255269
 30
0.0
 10
0.930201
 20
5.080430
 30
0.0
 10
0.930201
 20
1.467904
 30
0.0
 10
0.986170
 20
1.292893
 30
0.0
 10
1.119653
 20
1.219511
 30
0.0
 10
3.960911
 20
1.219511
 30
0.0
  0
LWPOLYLINE
  5
129
100
AcDbEntity
  8
e_
 62
7
100
AcDbPolyline
 90
23
 70
0
 10
3.960911
 20
6.547698
 30
0.0
 10
4.395784
 20
6.434872
 30
0.0
 10
4.753142
 20
6.118782
 30
0.0
 10
4.994227
 20
5.650251
 30
0.0
 10
5.080282
 20
5.080430
 30
0.0
 10
5.080282
 20
2.664385
 30
0.0
 10
0.930201
 20
2.664385
 30
0.0
 10
0.930201
 20
1.467904
 30
0.0
 10
0.986170
 20
1.292893
 30
0.0
 10
1.119653
 20
1.219511
 30
0.0
 10
5.080282
 20
1.219511
 30
0.0
 10
5.080282
 20
0.000293
 30
0.0
 10
1.119653
 20
0.000293
 30
0.0
 10
0.684780
 20
0.113119
 30
0.0
 10
0.327554
 20
0.429209
 30
0.0
 10
0.086469
 20
0.897741
 30
0.0
 10
0.000282
 20
1.467904
 30
0.0
 10
0.000282
 20
5.080430
 30
0.0
 10
0.086469
 20
5.650251
 30
0.0
 10
0.327554
 20
6.118782
 30
0.0
 10
0.684780
 20
6.434872
 30
0.0
 10
1.119653
 20
6.547698
 30
0.0
 10
3.960911
 20
6.547698
 30
0.0
  0
LWPOLYLINE
  5
12a
100
AcDbEntity
  8
e_
 62
7
100
AcDbPolyline
 90
9
 70
0
 10
4.150363
 20
3.883606
 30
0.0
 10
4.150363
 20
5.080430
 30
0.0
 10
4.094395
 20
5.255269
 30
0.0
 10
3.960911
 20
5.328476
 30
0.0
 10
1.119653
 20
5.328476
 30
0.0
 10
0.986170
 20
5.255269
 30
0.0
 10
0.930201
 20
5.080430
 30
0.0
 10
0.930201
 20
3.883606
 30
0.0
 10
4.150363
 20
3.883606
 30
0.0
  0
LWPOLYLINE
  5
12b
100
AcDbEntity
  8
f_
 62
7
100
AcDbPolyline
 90
18
 70
0
 10
2.084180
 20
7.473384
 30
0.0
 10
1.919781
 20
7.400002
 30
0.0
 10
1.850849
 20
7.225336
 30
0.0
 10
1.850849
 20
6.547686
 30
0.0
 10
4.374444
 20
6.547686
 30
0.0
 10
4.374444
 20
5.328458
 30
0.0
 10
1.850849
 20
5.328458
 30
0.0
 10
1.850849
 20
0.000269
 30
0.0
 10
0.705556
 20
0.000269
 30
0.0
 10
0.705556
 20
3.612806
 30
0.0
 10
0.705556
 20
7.225336
 30
0.0
 10
0.811541
 20
7.795156
 30
0.0
 10
1.108463
 20
8.263689
 30
0.0
 10
1.548588
 20
8.579777
 30
0.0
 10
2.084180
 20
8.692603
 30
0.0
 10
4.374444
 20
8.692603
 30
0.0
 10
4.374444
 20
7.473384
 30
0.0
 10
2.084180
 20
7.473384
 30
0.0
  0
LWPOLYLINE
  5
12c
100
AcDbEntity
  8
g_
 62
7
100
AcDbPolyline
 90
29
 70
0
 10
5.080282
 20
2.428985
 30
0.0
 10
5.080282
 20
2.417610
 30
0.0
 10
5.080282
 20
-1.194916
 30
0.0
 10
4.994100
 20
-1.765081
 30
0.0
 10
4.753028
 20
-2.233440
 30
0.0
 10
4.395820
 20
-2.549529
 30
0.0
 10
3.960969
 20
-2.662526
 30
0.0
 10
0.878654
 20
-2.662526
 30
0.0
 10
0.878654
 20
-1.443308
 30
0.0
 10
3.960969
 20
-1.443308
 30
0.0
 10
4.094446
 20
-1.369928
 30
0.0
 10
4.150412
 20
-1.194916
 30
0.0
 10
4.150412
 20
-0.065958
 30
0.0
 10
1.119595
 20
-0.065958
 30
0.0
 10
0.684876
 20
0.046868
 30
0.0
 10
0.327537
 20
0.362956
 30
0.0
 10
0.086464
 20
0.831490
 30
0.0
 10
0.000282
 20
1.401652
 30
0.0
 10
0.000282
 20
5.014178
 30
0.0
 10
0.086464
 20
5.583998
 30
0.0
 10
0.327537
 20
6.052531
 30
0.0
 10
0.684876
 20
6.368620
 30
0.0
 10
1.119595
 20
6.481445
 30
0.0
 10
3.960969
 20
6.481445
 30
0.0
 10
4.395820
 20
6.368620
 30
0.0
 10
4.753028
 20
6.052531
 30
0.0
 10
4.994100
 20
5.583998
 30
0.0
 10
5.080282
 20
5.014178
 30
0.0
 10
5.080282
 20
2.428985
 30
0.0
  0
LWPOLYLINE
  5
12d
100
AcDbEntity
  8
g_
 62
7
100
AcDbPolyline
 90
13
 70
0
 10
3.960969
 20
1.153266
 30
0.0
 10
4.094446
 20
1.226647
 30
0.0
 10
4.150412
 20
1.401659
 30
0.0
 10
4.150412
 20
5.014185
 30
0.0
 10
4.094446
 20
5.189025
 30
0.0
 10
3.960969
 20
5.262234
 30
0.0
 10
1.119595
 20
5.262234
 30
0.0
 10
0.986119
 20
5.189025
 30
0.0
 10
0.930153
 20
5.014185
 30
0.0
 10
0.930153
 20
1.401659
 30
0.0
 10
0.986119
 20
1.226647
 30
0.0
 10
1.119595
 20
1.153266
 30
0.0
 10
3.960969
 20
1.153266
 30
0.0
  0
LWPOLYLINE
  5
12e
100
AcDbEntity
  8
h_
 62
7
100
AcDbPolyline
 90
19
 70
0
 10
3.960969
 20
6.547687
 30
0.0
 10
4.395688
 20
6.434858
 30
0.0
 10
4.748692
 20
6.118773
 30
0.0
 10
4.989765
 20
5.650239
 30
0.0
 10
5.080282
 20
5.080420
 30
0.0
 10
5.080282
 20
0.000281
 30
0.0
 10
4.150412
 20
0.000281
 30
0.0
 10
4.150412
 20
5.080420
 30
0.0
 10
4.094446
 20
5.255257
 30
0.0
 10
3.960969
 20
5.328467
 30
0.0
 10
1.119595
 20
5.328467
 30
0.0
 10
0.986119
 20
5.255257
 30
0.0
 10
0.930153
 20
5.080420
 30
0.0
 10
0.930153
 20
0.000281
 30
0.0
 10
0.000282
 20
0.000281
 30
0.0
 10
0.000282
 20
8.692604
 30
0.0
 10
0.930153
 20
8.692604
 30
0.0
 10
0.930153
 20
6.547687
 30
0.0
 10
3.960969
 20
6.547687
 30
0.0
  0
LWPOLYLINE
  5
12f
100
AcDbEntity
  8
i_
 62
7
100
AcDbPolyline
 90
5
 70
0
 10
2.116949
 20
6.547696
 30
0.0
 10
3.104727
 20
6.547696
 30
0.0
 10
3.104727
 20
0.000291
 30
0.0
 10
2.116949
 20
0.000291
 30
0.0
 10
2.116949
 20
6.547696
 30
0.0
  0
LWPOLYLINE
  5
130
100
AcDbEntity
  8
i_
 62
7
100
AcDbPolyline
 90
5
 70
0
 10
3.104727
 20
8.692611
 30
0.0
 10
3.104727
 20
7.473393
 30
0.0
 10
2.116949
 20
7.473393
 30
0.0
 10
2.116949
 20
8.692611
 30
0.0
 10
3.104727
 20
8.692611
 30
0.0
  0
LWPOLYLINE
  5
131
100
AcDbEntity
  8
j_
 62
7
100
AcDbPolyline
 90
5
 70
0
 10
3.810282
 20
8.652944
 30
0.0
 10
3.810282
 20
7.433724
 30
0.0
 10
2.721755
 20
7.433724
 30
0.0
 10
2.721755
 20
8.652944
 30
0.0
 10
3.810282
 20
8.652944
 30
0.0
  0
LWPOLYLINE
  5
132
100
AcDbEntity
  8
j_
 62
7
100
AcDbPolyline
 90
14
 70
0
 10
3.810282
 20
2.444193
 30
0.0
 10
3.810282
 20
-1.168337
 30
0.0
 10
3.709396
 20
-1.738510
 30
0.0
 10
3.427191
 20
-2.206847
 30
0.0
 10
3.009035
 20
-2.522945
 30
0.0
 10
2.499989
 20
-2.635937
 30
0.0
 10
0.000282
 20
-2.635937
 30
0.0
 10
0.000282
 20
-1.416726
 30
0.0
 10
2.499989
 20
-1.416726
 30
0.0
 10
2.656240
 20
-1.343345
 30
0.0
 10
2.721755
 20
-1.168337
 30
0.0
 10
2.721755
 20
6.485634
 30
0.0
 10
3.810282
 20
6.485634
 30
0.0
 10
3.810282
 20
2.444193
 30
0.0
  0
LWPOLYLINE
  5
133
100
AcDbEntity
  8
k_
 62
7
100
AcDbPolyline
 90
16
 70
0
 10
5.080282
 20
6.547701
 30
0.0
 10
5.080282
 20
6.378545
 30
0.0
 10
2.910699
 20
3.274171
 30
0.0
 10
5.080282
 20
0.169793
 30
0.0
 10
5.080282
 20
0.000296
 30
0.0
 10
3.965043
 20
0.000296
 30
0.0
 10
2.074137
 20
2.664387
 30
0.0
 10
0.941348
 20
2.664387
 30
0.0
 10
0.941348
 20
0.000296
 30
0.0
 10
0.000282
 20
0.000296
 30
0.0
 10
0.000282
 20
8.692616
 30
0.0
 10
0.941348
 20
8.692616
 30
0.0
 10
0.941348
 20
3.883607
 30
0.0
 10
2.074137
 20
3.883607
 30
0.0
 10
3.965043
 20
6.547701
 30
0.0
 10
5.080282
 20
6.547701
 30
0.0
  0
LWPOLYLINE
  5
134
100
AcDbEntity
  8
l_
 62
7
100
AcDbPolyline
 90
14
 70
0
 10
1.058333
 20
5.080425
 30
0.0
 10
1.058333
 20
8.692615
 30
0.0
 10
2.277553
 20
8.692615
 30
0.0
 10
2.277553
 20
1.467896
 30
0.0
 10
2.350933
 20
1.292890
 30
0.0
 10
2.525944
 20
1.219512
 30
0.0
 10
3.745163
 20
1.219512
 30
0.0
 10
3.745163
 20
0.000284
 30
0.0
 10
2.525944
 20
0.000284
 30
0.0
 10
1.955781
 20
0.113116
 30
0.0
 10
1.487248
 20
0.429205
 30
0.0
 10
1.171160
 20
0.897722
 30
0.0
 10
1.058333
 20
1.467896
 30
0.0
 10
1.058333
 20
5.080425
 30
0.0
  0
LWPOLYLINE
  5
135
100
AcDbEntity
  8
m_
 62
7
100
AcDbPolyline
 90
25
 70
0
 10
4.322225
 20
6.547695
 30
0.0
 10
4.616620
 20
6.434866
 30
0.0
 10
4.858685
 20
6.118779
 30
0.0
 10
5.021991
 20
5.650245
 30
0.0
 10
5.080282
 20
5.080426
 30
0.0
 10
5.080282
 20
0.000289
 30
0.0
 10
4.173911
 20
0.000289
 30
0.0
 10
4.173911
 20
5.080426
 30
0.0
 10
4.135999
 20
5.255265
 30
0.0
 10
4.039885
 20
5.328473
 30
0.0
 10
3.127687
 20
5.328473
 30
0.0
 10
3.037269
 20
5.255265
 30
0.0
 10
2.999357
 20
5.080426
 30
0.0
 10
2.999357
 20
0.000289
 30
0.0
 10
2.228356
 20
0.000289
 30
0.0
 10
2.228356
 20
5.080426
 30
0.0
 10
2.190444
 20
5.255265
 30
0.0
 10
2.100025
 20
5.328473
 30
0.0
 10
0.910832
 20
5.328559
 30
0.0
 10
0.820413
 20
5.255352
 30
0.0
 10
0.782501
 20
5.080513
 30
0.0
 10
0.782501
 20
0.000375
 30
0.0
 10
0.000282
 20
0.000289
 30
0.0
 10
0.000282
 20
6.547695
 30
0.0
 10
4.322225
 20
6.547695
 30
0.0
  0
LWPOLYLINE
  5
136
100
AcDbEntity
  8
n_
 62
7
100
AcDbPolyline
 90
17
 70
0
 10
3.961533
 20
6.547687
 30
0.0
 10
4.396253
 20
6.434858
 30
0.0
 10
4.753592
 20
6.118773
 30
0.0
 10
4.994665
 20
5.650239
 30
0.0
 10
5.080847
 20
5.080420
 30
0.0
 10
5.080847
 20
0.000281
 30
0.0
 10
4.150976
 20
0.000281
 30
0.0
 10
4.150976
 20
5.080420
 30
0.0
 10
4.095010
 20
5.255257
 30
0.0
 10
3.961533
 20
5.328467
 30
0.0
 10
1.120160
 20
5.328467
 30
0.0
 10
0.986683
 20
5.255257
 30
0.0
 10
0.930717
 20
5.080420
 30
0.0
 10
0.930717
 20
0.000281
 30
0.0
 10
0.000847
 20
0.000281
 30
0.0
 10
0.000847
 20
6.547687
 30
0.0
 10
3.961533
 20
6.547687
 30
0.0
  0
LWPOLYLINE
  5
137
100
AcDbEntity
  8
o_
 62
7
100
AcDbPolyline
 90
21
 70
0
 10
3.960911
 20
6.547698
 30
0.0
 10
4.395784
 20
6.434872
 30
0.0
 10
4.753142
 20
6.118782
 30
0.0
 10
4.994228
 20
5.650251
 30
0.0
 10
5.080283
 20
5.080430
 30
0.0
 10
5.080283
 20
1.467904
 30
0.0
 10
4.994228
 20
0.897741
 30
0.0
 10
4.753142
 20
0.429209
 30
0.0
 10
4.395784
 20
0.113119
 30
0.0
 10
3.960911
 20
0.000293
 30
0.0
 10
1.119653
 20
0.000293
 30
0.0
 10
0.684780
 20
0.113119
 30
0.0
 10
0.327554
 20
0.429209
 30
0.0
 10
0.086469
 20
0.897741
 30
0.0
 10
0.000282
 20
1.467904
 30
0.0
 10
0.000282
 20
5.080430
 30
0.0
 10
0.086469
 20
5.650251
 30
0.0
 10
0.327554
 20
6.118782
 30
0.0
 10
0.684780
 20
6.434872
 30
0.0
 10
1.119653
 20
6.547698
 30
0.0
 10
3.960911
 20
6.547698
 30
0.0
  0
LWPOLYLINE
  5
138
100
AcDbEntity
  8
o_
 62
7
100
AcDbPolyline
 90
13
 70
0
 10
1.119653
 20
5.328476
 30
0.0
 10
0.986170
 20
5.255269
 30
0.0
 10
0.930201
 20
5.080430
 30
0.0
 10
0.930201
 20
1.467904
 30
0.0
 10
0.986170
 20
1.292893
 30
0.0
 10
1.119653
 20
1.219511
 30
0.0
 10
3.960911
 20
1.219511
 30
0.0
 10
4.094395
 20
1.292893
 30
0.0
 10
4.150364
 20
1.467904
 30
0.0
 10
4.150364
 20
5.080430
 30
0.0
 10
4.094395
 20
5.255269
 30
0.0
 10
3.960911
 20
5.328476
 30
0.0
 10
1.119653
 20
5.328476
 30
0.0
  0
LWPOLYLINE
  5
139
100
AcDbEntity
  8
p_
 62
7
100
AcDbPolyline
 90
15
 70
0
 10
3.960969
 20
6.527509
 30
0.0
 10
4.395688
 20
6.414680
 30
0.0
 10
4.753028
 20
6.098595
 30
0.0
 10
4.994100
 20
5.630061
 30
0.0
 10
5.080282
 20
5.060242
 30
0.0
 10
5.080282
 20
1.447716
 30
0.0
 10
4.994100
 20
0.877551
 30
0.0
 10
4.753028
 20
0.409017
 30
0.0
 10
4.395688
 20
0.092932
 30
0.0
 10
3.960969
 20
-0.019897
 30
0.0
 10
0.930153
 20
-0.019897
 30
0.0
 10
0.930153
 20
-2.616465
 30
0.0
 10
0.000282
 20
-2.616465
 30
0.0
 10
0.000282
 20
6.527509
 30
0.0
 10
3.960969
 20
6.527509
 30
0.0
  0
LWPOLYLINE
  5
13a
100
AcDbEntity
  8
p_
 62
7
100
AcDbPolyline
 90
13
 70
0
 10
4.150411
 20
5.060242
 30
0.0
 10
4.094446
 20
5.235079
 30
0.0
 10
3.960969
 20
5.308288
 30
0.0
 10
1.119595
 20
5.308288
 30
0.0
 10
0.986119
 20
5.235079
 30
0.0
 10
0.930153
 20
5.060242
 30
0.0
 10
0.930153
 20
1.447716
 30
0.0
 10
0.986119
 20
1.272704
 30
0.0
 10
1.119595
 20
1.199323
 30
0.0
 10
3.960969
 20
1.199323
 30
0.0
 10
4.094446
 20
1.272704
 30
0.0
 10
4.150411
 20
1.447716
 30
0.0
 10
4.150411
 20
5.060242
 30
0.0
  0
LWPOLYLINE
  5
13b
100
AcDbEntity
  8
q_
 62
7
100
AcDbPolyline
 90
15
 70
0
 10
0.000282
 20
5.079011
 30
0.0
 10
0.086469
 20
5.648829
 30
0.0
 10
0.327554
 20
6.117363
 30
0.0
 10
0.684780
 20
6.433450
 30
0.0
 10
1.119653
 20
6.546276
 30
0.0
 10
5.080283
 20
6.546276
 30
0.0
 10
5.080283
 20
-2.597694
 30
0.0
 10
4.150626
 20
-2.597694
 30
0.0
 10
4.150626
 20
-0.001125
 30
0.0
 10
1.119653
 20
-0.001125
 30
0.0
 10
0.684780
 20
0.111701
 30
0.0
 10
0.327554
 20
0.427787
 30
0.0
 10
0.086469
 20
0.896322
 30
0.0
 10
0.000282
 20
1.466485
 30
0.0
 10
0.000282
 20
5.079011
 30
0.0
  0
LWPOLYLINE
  5
13c
100
AcDbEntity
  8
q_
 62
7
100
AcDbPolyline
 90
13
 70
0
 10
0.930201
 20
1.466485
 30
0.0
 10
0.986170
 20
1.291475
 30
0.0
 10
1.119653
 20
1.218093
 30
0.0
 10
3.961174
 20
1.218093
 30
0.0
 10
4.094658
 20
1.291475
 30
0.0
 10
4.150626
 20
1.466485
 30
0.0
 10
4.150626
 20
5.079011
 30
0.0
 10
4.094658
 20
5.253851
 30
0.0
 10
3.961174
 20
5.327058
 30
0.0
 10
1.119653
 20
5.327058
 30
0.0
 10
0.986170
 20
5.253851
 30
0.0
 10
0.930201
 20
5.079011
 30
0.0
 10
0.930201
 20
1.466485
 30
0.0
  0
LWPOLYLINE
  5
13d
100
AcDbEntity
  8
r_
 62
7
100
AcDbPolyline
 90
14
 70
0
 10
4.559172
 20
6.547693
 30
0.0
 10
4.559172
 20
5.328474
 30
0.0
 10
1.739454
 20
5.328474
 30
0.0
 10
1.604537
 20
5.255264
 30
0.0
 10
1.547967
 20
5.080428
 30
0.0
 10
1.547967
 20
0.000289
 30
0.0
 10
0.608061
 20
0.000289
 30
0.0
 10
0.608061
 20
1.467898
 30
0.0
 10
0.608061
 20
5.080428
 30
0.0
 10
0.695040
 20
5.650244
 30
0.0
 10
0.938715
 20
6.118777
 30
0.0
 10
1.299911
 20
6.434864
 30
0.0
 10
1.739454
 20
6.547693
 30
0.0
 10
4.559172
 20
6.547693
 30
0.0
  0
LWPOLYLINE
  5
13e
100
AcDbEntity
  8
s_
 62
7
100
AcDbPolyline
 90
53
 70
0
 10
5.080282
 20
4.832041
 30
0.0
 10
4.150363
 20
4.832041
 30
0.0
 10
4.150363
 20
5.080430
 30
0.0
 10
4.094395
 20
5.255269
 30
0.0
 10
3.960911
 20
5.328476
 30
0.0
 10
1.119653
 20
5.328476
 30
0.0
 10
0.986170
 20
5.255269
 30
0.0
 10
0.930201
 20
5.080430
 30
0.0
 10
0.930201
 20
4.131995
 30
0.0
 10
0.986170
 20
3.956985
 30
0.0
 10
1.119653
 20
3.883606
 30
0.0
 10
3.960911
 20
3.883606
 30
0.0
 10
4.395784
 20
3.770777
 30
0.0
 10
4.753142
 20
3.454690
 30
0.0
 10
4.994227
 20
2.986159
 30
0.0
 10
5.080282
 20
2.415996
 30
0.0
 10
5.080282
 20
1.467904
 30
0.0
 10
4.994227
 20
0.897741
 30
0.0
 10
4.753142
 20
0.429209
 30
0.0
 10
4.395784
 20
0.113119
 30
0.0
 10
3.960911
 20
0.000293
 30
0.0
 10
1.119653
 20
0.000293
 30
0.0
 10
0.684780
 20
0.113119
 30
0.0
 10
0.327422
 20
0.429209
 30
0.0
 10
0.086337
 20
0.897741
 30
0.0
 10
0.000282
 20
1.467904
 30
0.0
 10
0.000282
 20
1.716296
 30
0.0
 10
0.930201
 20
1.716296
 30
0.0
 10
0.930201
 20
1.467904
 30
0.0
 10
0.986170
 20
1.292893
 30
0.0
 10
1.119653
 20
1.219511
 30
0.0
 10
3.960911
 20
1.219511
 30
0.0
 10
4.094395
 20
1.292893
 30
0.0
 10
4.150363
 20
1.467904
 30
0.0
 10
4.150363
 20
2.415996
 30
0.0
 10
4.094395
 20
2.591006
 30
0.0
 10
3.960911
 20
2.664385
 30
0.0
 10
1.119653
 20
2.664385
 30
0.0
 10
0.684780
 20
2.777385
 30
0.0
 10
0.327422
 20
3.093472
 30
0.0
 10
0.086337
 20
3.561832
 30
0.0
 10
0.000282
 20
4.131995
 30
0.0
 10
0.000282
 20
5.080430
 30
0.0
 10
0.086337
 20
5.650251
 30
0.0
 10
0.327422
 20
6.118782
 30
0.0
 10
0.684780
 20
6.434872
 30
0.0
 10
1.119653
 20
6.547698
 30
0.0
 10
3.960911
 20
6.547698
 30
0.0
 10
4.395784
 20
6.434872
 30
0.0
 10
4.753142
 20
6.118782
 30
0.0
 10
4.994227
 20
5.650251
 30
0.0
 10
5.080282
 20
5.080430
 30
0.0
 10
5.080282
 20
4.832041
 30
0.0
  0
LWPOLYLINE
  5
13f
100
AcDbEntity
  8
t_
 62
7
100
AcDbPolyline
 90
18
 70
0
 10
1.574120
 20
5.328471
 30
0.0
 10
1.574120
 20
1.467898
 30
0.0
 10
1.632447
 20
1.292888
 30
0.0
 10
1.771554
 20
1.219507
 30
0.0
 10
3.709470
 20
1.219507
 30
0.0
 10
3.709470
 20
0.000287
 30
0.0
 10
1.771554
 20
0.000287
 30
0.0
 10
1.318360
 20
0.113113
 30
0.0
 10
0.945947
 20
0.429203
 30
0.0
 10
0.694706
 20
0.897735
 30
0.0
 10
0.605025
 20
1.467898
 30
0.0
 10
0.605025
 20
5.080425
 30
0.0
 10
0.605025
 20
8.692607
 30
0.0
 10
1.574120
 20
8.692607
 30
0.0
 10
1.574120
 20
6.547692
 30
0.0
 10
3.709470
 20
6.547692
 30
0.0
 10
3.709470
 20
5.328471
 30
0.0
 10
1.574120
 20
5.328471
 30
0.0
  0
LWPOLYLINE
  5
140
100
AcDbEntity
  8
u_
 62
7
100
AcDbPolyline
 90
21
 70
0
 10
5.080565
 20
6.547698
 30
0.0
 10
5.080565
 20
1.467904
 30
0.0
 10
4.994378
 20
0.897741
 30
0.0
 10
4.753293
 20
0.429209
 30
0.0
 10
4.396067
 20
0.113119
 30
0.0
 10
3.961194
 20
0.000293
 30
0.0
 10
1.119936
 20
0.000293
 30
0.0
 10
0.685063
 20
0.113119
 30
0.0
 10
0.327705
 20
0.429209
 30
0.0
 10
0.086619
 20
0.897741
 30
0.0
 10
0.000564
 20
1.467904
 30
0.0
 10
0.000564
 20
6.547698
 30
0.0
 10
0.930483
 20
6.547698
 30
0.0
 10
0.930483
 20
1.467904
 30
0.0
 10
0.986452
 20
1.292893
 30
0.0
 10
1.119936
 20
1.219511
 30
0.0
 10
3.961194
 20
1.219511
 30
0.0
 10
4.094677
 20
1.292893
 30
0.0
 10
4.150646
 20
1.467904
 30
0.0
 10
4.150646
 20
6.547698
 30
0.0
 10
5.080565
 20
6.547698
 30
0.0
  0
LWPOLYLINE
  5
141
100
AcDbEntity
  8
v_
 62
7
100
AcDbPolyline
 90
8
 70
0
 10
5.080282
 20
6.547685
 30
0.0
 10
2.907018
 20
0.000280
 30
0.0
 10
2.173546
 20
0.000280
 30
0.0
 10
0.000282
 20
6.547685
 30
0.0
 10
0.849194
 20
6.547685
 30
0.0
 10
2.540178
 20
1.377630
 30
0.0
 10
4.238002
 20
6.547685
 30
0.0
 10
5.080282
 20
6.547685
 30
0.0
  0
LWPOLYLINE
  5
142
100
AcDbEntity
  8
w_
 62
7
100
AcDbPolyline
 90
16
 70
0
 10
5.081129
 20
6.547692
 30
0.0
 10
3.974714
 20
0.000290
 30
0.0
 10
3.528214
 20
0.000290
 30
0.0
 10
2.538574
 20
4.865799
 30
0.0
 10
1.604842
 20
0.000290
 30
0.0
 10
1.594621
 20
0.011655
 30
0.0
 10
1.599731
 20
0.000290
 30
0.0
 10
1.158188
 20
0.000290
 30
0.0
 10
0.001129
 20
6.547692
 30
0.0
 10
0.731324
 20
6.547692
 30
0.0
 10
1.440180
 20
2.540005
 30
0.0
 10
2.228982
 20
6.547692
 30
0.0
 10
2.853121
 20
6.547692
 30
0.0
 10
3.663527
 20
2.540005
 30
0.0
 10
4.324970
 20
6.547692
 30
0.0
 10
5.081129
 20
6.547692
 30
0.0
  0
LWPOLYLINE
  5
143
100
AcDbEntity
  8
x_
 62
7
100
AcDbPolyline
 90
17
 70
0
 10
5.080282
 20
6.547696
 30
0.0
 10
5.080282
 20
6.378542
 30
0.0
 10
3.132876
 20
3.330665
 30
0.0
 10
5.080282
 20
0.169791
 30
0.0
 10
5.080282
 20
0.000292
 30
0.0
 10
3.996638
 20
0.000292
 30
0.0
 10
2.540411
 20
2.382229
 30
0.0
 10
1.084184
 20
0.000292
 30
0.0
 10
0.000282
 20
0.000292
 30
0.0
 10
0.000282
 20
0.169791
 30
0.0
 10
1.939162
 20
3.330665
 30
0.0
 10
0.000282
 20
6.378542
 30
0.0
 10
0.000282
 20
6.547696
 30
0.0
 10
1.084184
 20
6.547696
 30
0.0
 10
2.540411
 20
4.278756
 30
0.0
 10
3.996638
 20
6.547696
 30
0.0
 10
5.080282
 20
6.547696
 30
0.0
  0
LWPOLYLINE
  5
144
100
AcDbEntity
  8
y_
 62
7
100
AcDbPolyline
 90
29
 70
0
 10
5.080283
 20
2.488385
 30
0.0
 10
5.080283
 20
2.465991
 30
0.0
 10
5.080283
 20
-1.146538
 30
0.0
 10
4.994228
 20
-1.716702
 30
0.0
 10
4.753142
 20
-2.185062
 30
0.0
 10
4.395784
 20
-2.501148
 30
0.0
 10
3.961174
 20
-2.614149
 30
0.0
 10
0.878699
 20
-2.614149
 30
0.0
 10
0.878699
 20
-1.394928
 30
0.0
 10
3.961174
 20
-1.394928
 30
0.0
 10
4.094395
 20
-1.321549
 30
0.0
 10
4.150364
 20
-1.146538
 30
0.0
 10
4.150364
 20
-0.017580
 30
0.0
 10
1.119653
 20
-0.017580
 30
0.0
 10
0.684780
 20
0.095249
 30
0.0
 10
0.327554
 20
0.411336
 30
0.0
 10
0.086469
 20
0.879870
 30
0.0
 10
0.000282
 20
1.450033
 30
0.0
 10
0.000282
 20
6.507433
 30
0.0
 10
0.930201
 20
6.507433
 30
0.0
 10
0.930201
 20
1.450033
 30
0.0
 10
0.986170
 20
1.275023
 30
0.0
 10
1.119653
 20
1.201644
 30
0.0
 10
3.961174
 20
1.201644
 30
0.0
 10
4.094395
 20
1.275023
 30
0.0
 10
4.150364
 20
1.450033
 30
0.0
 10
4.150364
 20
6.507433
 30
0.0
 10
5.080283
 20
6.507433
 30
0.0
 10
5.080283
 20
2.488385
 30
0.0
  0
LWPOLYLINE
  5
145
100
AcDbEntity
  8
z_
 62
7
100
AcDbPolyline
 90
11
 70
0
 10
0.000282
 20
6.547703
 30
0.0
 10
5.080282
 20
6.547703
 30
0.0
 10
5.080282
 20
5.102810
 30
0.0
 10
1.240197
 20
1.219517
 30
0.0
 10
5.080282
 20
1.219517
 30
0.0
 10
5.080282
 20
0.000288
 30
0.0
 10
0.000282
 20
0.000288
 30
0.0
 10
0.000282
 20
1.445153
 30
0.0
 10
3.840367
 20
5.328475
 30
0.0
 10
0.000282
 20
5.328475
 30
0.0
 10
0.000282
 20
6.547703
 30
0.0
  0
LWPOLYLINE
  5
146
100
AcDbEntity
  8
0
 62
7
100
AcDbPolyline
 90
21
 70
0
 10
4.163027
 20
8.128307
 30
0.0
 10
4.519378
 20
8.015482
 30
0.0
 10
4.812104
 20
7.699392
 30
0.0
 10
5.009658
 20
7.230862
 30
0.0
 10
5.080282
 20
6.660697
 30
0.0
 10
5.080282
 20
1.467903
 30
0.0
 10
5.009658
 20
0.897742
 30
0.0
 10
4.812104
 20
0.429209
 30
0.0
 10
4.519378
 20
0.113122
 30
0.0
 10
4.163027
 20
0.000293
 30
0.0
 10
0.917537
 20
0.000293
 30
0.0
 10
0.561186
 20
0.113122
 30
0.0
 10
0.268353
 20
0.429209
 30
0.0
 10
0.070799
 20
0.897742
 30
0.0
 10
0.000282
 20
1.467903
 30
0.0
 10
0.000282
 20
6.660697
 30
0.0
 10
0.070799
 20
7.230862
 30
0.0
 10
0.268353
 20
7.699392
 30
0.0
 10
0.561186
 20
8.015482
 30
0.0
 10
0.917537
 20
8.128307
 30
0.0
 10
4.163027
 20
8.128307
 30
0.0
  0
LWPOLYLINE
  5
147
100
AcDbEntity
  8
0
 62
7
100
AcDbPolyline
 90
6
 70
0
 10
0.917537
 20
6.909088
 30
0.0
 10
0.808156
 20
6.835706
 30
0.0
 10
0.762293
 20
6.660697
 30
0.0
 10
0.762293
 20
2.472495
 30
0.0
 10
4.064196
 20
6.909088
 30
0.0
 10
0.917537
 20
6.909088
 30
0.0
  0
LWPOLYLINE
  5
148
100
AcDbEntity
  8
0
 62
7
100
AcDbPolyline
 90
6
 70
0
 10
4.163027
 20
1.219512
 30
0.0
 10
4.272409
 20
1.292894
 30
0.0
 10
4.318271
 20
1.467903
 30
0.0
 10
4.318271
 20
5.656106
 30
0.0
 10
1.016153
 20
1.219512
 30
0.0
 10
4.163027
 20
1.219512
 30
0.0
  0
LWPOLYLINE
  5
149
100
AcDbEntity
  8
1
 62
7
100
AcDbPolyline
 90
8
 70
0
 10
2.605402
 20
8.128304
 30
0.0
 10
3.701967
 20
8.128304
 30
0.0
 10
3.701967
 20
0.000290
 30
0.0
 10
2.783882
 20
0.000290
 30
0.0
 10
2.783882
 20
6.502564
 30
0.0
 10
2.078262
 20
5.384975
 30
0.0
 10
0.879745
 20
5.384975
 30
0.0
 10
2.605402
 20
8.128304
 30
0.0
  0
LWPOLYLINE
  5
14a
100
AcDbEntity
  8
2
 62
7
100
AcDbPolyline
 90
41
 70
0
 10
4.163027
 20
8.128307
 30
0.0
 10
4.519378
 20
8.015482
 30
0.0
 10
4.812103
 20
7.699392
 30
0.0
 10
5.009658
 20
7.230862
 30
0.0
 10
5.080282
 20
6.660697
 30
0.0
 10
5.080282
 20
4.809302
 30
0.0
 10
5.009658
 20
4.239138
 30
0.0
 10
4.812103
 20
3.770779
 30
0.0
 10
4.519378
 20
3.454693
 30
0.0
 10
4.163027
 20
3.341692
 30
0.0
 10
0.917537
 20
3.341692
 30
0.0
 10
0.808156
 20
3.268310
 30
0.0
 10
0.762293
 20
3.093301
 30
0.0
 10
0.762293
 20
1.467903
 30
0.0
 10
0.808156
 20
1.292894
 30
0.0
 10
0.917537
 20
1.219512
 30
0.0
 10
5.080282
 20
1.219512
 30
0.0
 10
5.080282
 20
0.000293
 30
0.0
 10
0.000282
 20
0.000293
 30
0.0
 10
0.000282
 20
3.093301
 30
0.0
 10
0.070799
 20
3.663465
 30
0.0
 10
0.268353
 20
4.131996
 30
0.0
 10
0.561186
 20
4.448085
 30
0.0
 10
0.917537
 20
4.560911
 30
0.0
 10
4.163027
 20
4.560911
 30
0.0
 10
4.272409
 20
4.634293
 30
0.0
 10
4.318271
 20
4.809302
 30
0.0
 10
4.318271
 20
6.660697
 30
0.0
 10
4.272409
 20
6.835706
 30
0.0
 10
4.163027
 20
6.909088
 30
0.0
 10
0.917537
 20
6.909088
 30
0.0
 10
0.808156
 20
6.835706
 30
0.0
 10
0.762293
 20
6.660697
 30
0.0
 10
0.762293
 20
6.186652
 30
0.0
 10
0.000282
 20
6.186652
 30
0.0
 10
0.000282
 20
6.660697
 30
0.0
 10
0.070799
 20
7.230862
 30
0.0
 10
0.268353
 20
7.699392
 30
0.0
 10
0.561186
 20
8.015482
 30
0.0
 10
0.917537
 20
8.128307
 30
0.0
 10
4.163027
 20
8.128307
 30
0.0
  0
LWPOLYLINE
  5
14b
100
AcDbEntity
  8
3
 62
7
100
AcDbPolyline
 90
49
 70
0
 10
4.776899
 20
4.369020
 30
0.0
 10
4.999107
 20
3.894974
 30
0.0
 10
5.080282
 20
3.285192
 30
0.0
 10
5.080282
 20
1.467903
 30
0.0
 10
5.009658
 20
0.897742
 30
0.0
 10
4.812104
 20
0.429209
 30
0.0
 10
4.519378
 20
0.113122
 30
0.0
 10
4.163027
 20
0.000293
 30
0.0
 10
0.917537
 20
0.000293
 30
0.0
 10
0.561186
 20
0.113122
 30
0.0
 10
0.268353
 20
0.429209
 30
0.0
 10
0.070799
 20
0.897742
 30
0.0
 10
0.000282
 20
1.467903
 30
0.0
 10
0.000282
 20
1.806558
 30
0.0
 10
0.762293
 20
1.806558
 30
0.0
 10
0.762293
 20
1.467903
 30
0.0
 10
0.808156
 20
1.292894
 30
0.0
 10
0.917537
 20
1.219512
 30
0.0
 10
4.163027
 20
1.219512
 30
0.0
 10
4.272409
 20
1.292894
 30
0.0
 10
4.318271
 20
1.467903
 30
0.0
 10
4.318271
 20
3.285192
 30
0.0
 10
4.272409
 20
3.460204
 30
0.0
 10
4.163027
 20
3.533583
 30
0.0
 10
0.917537
 20
3.533583
 30
0.0
 10
0.917537
 20
4.752802
 30
0.0
 10
3.951369
 20
4.752802
 30
0.0
 10
4.060751
 20
4.826184
 30
0.0
 10
4.106614
 20
5.001193
 30
0.0
 10
4.106614
 20
6.660697
 30
0.0
 10
4.060751
 20
6.835706
 30
0.0
 10
3.951369
 20
6.909088
 30
0.0
 10
0.917537
 20
6.909088
 30
0.0
 10
0.808156
 20
6.835706
 30
0.0
 10
0.762293
 20
6.660697
 30
0.0
 10
0.762293
 20
6.209045
 30
0.0
 10
0.000282
 20
6.209045
 30
0.0
 10
0.000282
 20
6.660697
 30
0.0
 10
0.070799
 20
7.230862
 30
0.0
 10
0.268353
 20
7.699392
 30
0.0
 10
0.561186
 20
8.015482
 30
0.0
 10
0.917537
 20
8.128307
 30
0.0
 10
3.951369
 20
8.128307
 30
0.0
 10
4.307721
 20
8.015482
 30
0.0
 10
4.600446
 20
7.699392
 30
0.0
 10
4.798000
 20
7.230862
 30
0.0
 10
4.868624
 20
6.660697
 30
0.0
 10
4.868624
 20
5.001193
 30
0.0
 10
4.776899
 20
4.369020
 30
0.0
  0
LWPOLYLINE
  5
14c
100
AcDbEntity
  8
4
 62
7
100
AcDbPolyline
 90
12
 70
0
 10
5.080282
 20
3.285182
 30
0.0
 10
5.080282
 20
2.066306
 30
0.0
 10
4.299746
 20
2.066306
 30
0.0
 10
4.299746
 20
0.000283
 30
0.0
 10
3.504606
 20
0.000283
 30
0.0
 10
3.504606
 20
2.066306
 30
0.0
 10
0.000282
 20
2.066306
 30
0.0
 10
0.000282
 20
3.285182
 30
0.0
 10
3.504606
 20
8.128295
 30
0.0
 10
4.299746
 20
8.128295
 30
0.0
 10
4.299746
 20
3.285182
 30
0.0
 10
5.080282
 20
3.285182
 30
0.0
  0
LWPOLYLINE
  5
14d
100
AcDbEntity
  8
4
 62
7
100
AcDbPolyline
 90
4
 70
0
 10
1.156033
 20
3.285182
 30
0.0
 10
3.504606
 20
3.285182
 30
0.0
 10
3.504606
 20
6.209036
 30
0.0
 10
1.156033
 20
3.285182
 30
0.0
  0
LWPOLYLINE
  5
14e
100
AcDbEntity
  8
5
 62
7
100
AcDbPolyline
 90
41
 70
0
 10
0.762293
 20
6.660697
 30
0.0
 10
0.762293
 20
5.035299
 30
0.0
 10
0.808156
 20
4.860290
 30
0.0
 10
0.917537
 20
4.786908
 30
0.0
 10
4.163027
 20
4.786908
 30
0.0
 10
4.519378
 20
4.673911
 30
0.0
 10
4.812103
 20
4.357821
 30
0.0
 10
5.009658
 20
3.889463
 30
0.0
 10
5.080282
 20
3.319298
 30
0.0
 10
5.080282
 20
1.467903
 30
0.0
 10
5.009658
 20
0.897742
 30
0.0
 10
4.812103
 20
0.429209
 30
0.0
 10
4.519378
 20
0.113122
 30
0.0
 10
4.163027
 20
0.000293
 30
0.0
 10
0.917537
 20
0.000293
 30
0.0
 10
0.561186
 20
0.113122
 30
0.0
 10
0.268353
 20
0.429209
 30
0.0
 10
0.070799
 20
0.897742
 30
0.0
 10
0.000282
 20
1.467903
 30
0.0
 10
0.000282
 20
1.941949
 30
0.0
 10
0.762293
 20
1.941949
 30
0.0
 10
0.762293
 20
1.467903
 30
0.0
 10
0.808156
 20
1.292894
 30
0.0
 10
0.917537
 20
1.219512
 30
0.0
 10
4.163027
 20
1.219512
 30
0.0
 10
4.272409
 20
1.292894
 30
0.0
 10
4.318271
 20
1.467903
 30
0.0
 10
4.318271
 20
3.319298
 30
0.0
 10
4.272409
 20
3.494311
 30
0.0
 10
4.163027
 20
3.567689
 30
0.0
 10
0.000282
 20
3.567689
 30
0.0
 10
0.000282
 20
4.786908
 30
0.0
 10
0.014278
 20
4.786908
 30
0.0
 10
0.003835
 20
4.905249
 30
0.0
 10
0.000282
 20
5.035299
 30
0.0
 10
0.000282
 20
8.128307
 30
0.0
 10
5.080282
 20
8.128307
 30
0.0
 10
5.080282
 20
6.909088
 30
0.0
 10
0.917537
 20
6.909088
 30
0.0
 10
0.808156
 20
6.835706
 30
0.0
 10
0.762293
 20
6.660697
 30
0.0
  0
LWPOLYLINE
  5
14f
100
AcDbEntity
  8
6
 62
7
100
AcDbPolyline
 90
30
 70
0
 10
4.163027
 20
4.786908
 30
0.0
 10
4.519378
 20
4.673911
 30
0.0
 10
4.812104
 20
4.357821
 30
0.0
 10
5.009658
 20
3.889463
 30
0.0
 10
5.080282
 20
3.319298
 30
0.0
 10
5.080282
 20
1.467903
 30
0.0
 10
5.009658
 20
0.897742
 30
0.0
 10
4.812104
 20
0.429209
 30
0.0
 10
4.519378
 20
0.113122
 30
0.0
 10
4.163027
 20
0.000293
 30
0.0
 10
0.917537
 20
0.000293
 30
0.0
 10
0.561186
 20
0.113122
 30
0.0
 10
0.268353
 20
0.429209
 30
0.0
 10
0.070799
 20
0.897742
 30
0.0
 10
0.000282
 20
1.467903
 30
0.0
 10
0.000282
 20
6.660697
 30
0.0
 10
0.070799
 20
7.230862
 30
0.0
 10
0.268353
 20
7.699392
 30
0.0
 10
0.561186
 20
8.015482
 30
0.0
 10
0.917537
 20
8.128307
 30
0.0
 10
4.233652
 20
8.128307
 30
0.0
 10
4.233652
 20
6.909088
 30
0.0
 10
0.917537
 20
6.909088
 30
0.0
 10
0.808156
 20
6.835706
 30
0.0
 10
0.762293
 20
6.660697
 30
0.0
 10
0.762293
 20
5.035299
 30
0.0
 10
0.808156
 20
4.860290
 30
0.0
 10
0.917537
 20
4.786908
 30
0.0
 10
3.316396
 20
4.786908
 30
0.0
 10
4.163027
 20
4.786908
 30
0.0
  0
LWPOLYLINE
  5
150
100
AcDbEntity
  8
6
 62
7
100
AcDbPolyline
 90
11
 70
0
 10
4.318271
 20
3.319298
 30
0.0
 10
4.272409
 20
3.494311
 30
0.0
 10
4.163027
 20
3.567689
 30
0.0
 10
0.762293
 20
3.567689
 30
0.0
 10
0.762293
 20
1.467903
 30
0.0
 10
0.808156
 20
1.292894
 30
0.0
 10
0.917537
 20
1.219512
 30
0.0
 10
4.163027
 20
1.219512
 30
0.0
 10
4.272409
 20
1.292894
 30
0.0
 10
4.318271
 20
1.467903
 30
0.0
 10
4.318271
 20
3.319298
 30
0.0
  0
LWPOLYLINE
  5
151
100
AcDbEntity
  8
7
 62
7
100
AcDbPolyline
 90
14
 70
0
 10
0.085031
 20
8.128304
 30
0.0
 10
3.979585
 20
8.128304
 30
0.0
 10
4.407203
 20
8.015479
 30
0.0
 10
4.758600
 20
7.699392
 30
0.0
 10
4.995663
 20
7.230859
 30
0.0
 10
5.080282
 20
6.660696
 30
0.0
 10
5.080282
 20
0.000292
 30
0.0
 10
4.165877
 20
0.000292
 30
0.0
 10
4.165877
 20
6.660696
 30
0.0
 10
4.110842
 20
6.835705
 30
0.0
 10
3.979585
 20
6.909084
 30
0.0
 10
0.000282
 20
6.909084
 30
0.0
 10
0.000282
 20
8.128304
 30
0.0
 10
0.085031
 20
8.128304
 30
0.0
  0
LWPOLYLINE
  5
152
100
AcDbEntity
  8
8
 62
7
100
AcDbPolyline
 90
27
 70
0
 10
5.080282
 20
5.035299
 30
0.0
 10
4.903937
 20
4.177129
 30
0.0
 10
5.080282
 20
3.319298
 30
0.0
 10
5.080282
 20
1.467903
 30
0.0
 10
5.009658
 20
0.897742
 30
0.0
 10
4.812103
 20
0.429209
 30
0.0
 10
4.519378
 20
0.113122
 30
0.0
 10
4.163027
 20
0.000293
 30
0.0
 10
0.917537
 20
0.000293
 30
0.0
 10
0.561186
 20
0.113122
 30
0.0
 10
0.268353
 20
0.429209
 30
0.0
 10
0.070799
 20
0.897742
 30
0.0
 10
0.000282
 20
1.467903
 30
0.0
 10
0.000282
 20
3.319298
 30
0.0
 10
0.176628
 20
4.177129
 30
0.0
 10
0.000282
 20
5.035299
 30
0.0
 10
0.000282
 20
6.660697
 30
0.0
 10
0.070799
 20
7.230862
 30
0.0
 10
0.268353
 20
7.699392
 30
0.0
 10
0.561186
 20
8.015482
 30
0.0
 10
0.917537
 20
8.128307
 30
0.0
 10
4.163027
 20
8.128307
 30
0.0
 10
4.487511
 20
8.032360
 30
0.0
 10
4.762688
 20
7.772774
 30
0.0
 10
4.967348
 20
7.388989
 30
0.0
 10
5.080282
 20
6.909088
 30
0.0
 10
5.080282
 20
5.035299
 30
0.0
  0
LWPOLYLINE
  5
153
100
AcDbEntity
  8
8
 62
7
100
AcDbPolyline
 90
13
 70
0
 10
4.318271
 20
3.319298
 30
0.0
 10
4.272409
 20
3.494311
 30
0.0
 10
4.163027
 20
3.567689
 30
0.0
 10
0.917537
 20
3.567689
 30
0.0
 10
0.808156
 20
3.494311
 30
0.0
 10
0.762293
 20
3.319298
 30
0.0
 10
0.762293
 20
1.467903
 30
0.0
 10
0.808156
 20
1.292894
 30
0.0
 10
0.917537
 20
1.219512
 30
0.0
 10
4.163027
 20
1.219512
 30
0.0
 10
4.272409
 20
1.292894
 30
0.0
 10
4.318271
 20
1.467903
 30
0.0
 10
4.318271
 20
3.319298
 30
0.0
  0
LWPOLYLINE
  5
154
100
AcDbEntity
  8
8
 62
7
100
AcDbPolyline
 90
13
 70
0
 10
4.318271
 20
6.649327
 30
0.0
 10
4.272409
 20
6.824340
 30
0.0
 10
4.163027
 20
6.897718
 30
0.0
 10
0.917537
 20
6.897718
 30
0.0
 10
0.808156
 20
6.824340
 30
0.0
 10
0.762293
 20
6.649327
 30
0.0
 10
0.762293
 20
4.910933
 30
0.0
 10
0.808156
 20
4.735924
 30
0.0
 10
0.917537
 20
4.662541
 30
0.0
 10
4.163027
 20
4.662541
 30
0.0
 10
4.272409
 20
4.735924
 30
0.0
 10
4.318271
 20
4.910933
 30
0.0
 10
4.318271
 20
6.649327
 30
0.0
  0
LWPOLYLINE
  5
155
100
AcDbEntity
  8
9
 62
7
100
AcDbPolyline
 90
33
 70
0
 10
0.917537
 20
3.341692
 30
0.0
 10
0.561186
 20
3.454693
 30
0.0
 10
0.268461
 20
3.770779
 30
0.0
 10
0.070907
 20
4.239138
 30
0.0
 10
0.000282
 20
4.809302
 30
0.0
 10
0.000282
 20
6.660697
 30
0.0
 10
0.070907
 20
7.230862
 30
0.0
 10
0.268461
 20
7.699392
 30
0.0
 10
0.561186
 20
8.015482
 30
0.0
 10
0.917537
 20
8.128307
 30
0.0
 10
4.163027
 20
8.128307
 30
0.0
 10
4.519378
 20
8.015482
 30
0.0
 10
4.812211
 20
7.699392
 30
0.0
 10
5.009765
 20
7.230862
 30
0.0
 10
5.080282
 20
6.660697
 30
0.0
 10
5.080282
 20
1.467903
 30
0.0
 10
5.009765
 20
0.897742
 30
0.0
 10
4.812211
 20
0.429209
 30
0.0
 10
4.519378
 20
0.113122
 30
0.0
 10
4.163027
 20
0.000293
 30
0.0
 10
0.917537
 20
0.000293
 30
0.0
 10
0.596606
 20
0.096240
 30
0.0
 10
0.324874
 20
0.355827
 30
0.0
 10
0.123767
 20
0.739612
 30
0.0
 10
0.014493
 20
1.219512
 30
0.0
 10
4.163027
 20
1.219512
 30
0.0
 10
4.272409
 20
1.292894
 30
0.0
 10
4.318271
 20
1.467903
 30
0.0
 10
4.318271
 20
3.093301
 30
0.0
 10
4.272409
 20
3.268310
 30
0.0
 10
4.163027
 20
3.341692
 30
0.0
 10
1.764168
 20
3.341692
 30
0.0
 10
0.917537
 20
3.341692
 30
0.0
  0
LWPOLYLINE
  5
156
100
AcDbEntity
  8
9
 62
7
100
AcDbPolyline
 90
11
 70
0
 10
0.762293
 20
4.809302
 30
0.0
 10
0.808156
 20
4.634293
 30
0.0
 10
0.917537
 20
4.560911
 30
0.0
 10
4.318271
 20
4.560911
 30
0.0
 10
4.318271
 20
6.660697
 30
0.0
 10
4.272409
 20
6.835706
 30
0.0
 10
4.163027
 20
6.909088
 30
0.0
 10
0.917537
 20
6.909088
 30
0.0
 10
0.808156
 20
6.835706
 30
0.0
 10
0.762293
 20
6.660697
 30
0.0
 10
0.762293
 20
4.809302
 30
0.0
  0
LWPOLYLINE
  5
157
100
AcDbEntity
  8
~
 62
7
100
AcDbPolyline
 90
22
 70
0
 10
3.488189
 20
3.612248
 30
0.0
 10
3.951038
 20
3.691327
 30
0.0
 10
4.368756
 20
3.905788
 30
0.0
 10
4.368756
 20
3.070353
 30
0.0
 10
3.967919
 20
2.929270
 30
0.0
 10
3.488189
 20
2.867097
 30
0.0
 10
2.918026
 20
2.985602
 30
0.0
 10
2.381797
 20
3.250863
 30
0.0
 10
1.828687
 20
3.516152
 30
0.0
 10
1.230274
 20
3.634657
 30
0.0
 10
1.015817
 20
3.629012
 30
0.0
 10
0.773110
 20
3.595258
 30
0.0
 10
0.552968
 20
3.516208
 30
0.0
 10
0.394838
 20
3.375125
 30
0.0
 10
0.394838
 20
4.221594
 30
0.0
 10
0.761913
 20
4.334568
 30
0.0
 10
1.230274
 20
4.379723
 30
0.0
 10
1.817490
 20
4.272394
 30
0.0
 10
2.359232
 20
4.029683
 30
0.0
 10
2.900973
 20
3.770095
 30
0.0
 10
3.488189
 20
3.612135
 30
0.0
 10
3.488189
 20
3.612248
 30
0.0
  0
LWPOLYLINE
  5
158
100
AcDbEntity
  8
`
 62
7
100
AcDbPolyline
 90
5
 70
0
 10
2.933783
 20
6.256985
 30
0.0
 10
2.216608
 20
6.256985
 30
0.0
 10
2.216608
 20
8.085504
 30
0.0
 10
2.933783
 20
8.085504
 30
0.0
 10
2.933783
 20
6.256985
 30
0.0
  0
LWPOLYLINE
  5
159
100
AcDbEntity
  8
!
 62
7
100
AcDbPolyline
 90
5
 70
0
 10
1.910957
 20
0.000292
 30
0.0
 10
1.910957
 20
1.219511
 30
0.0
 10
2.757623
 20
1.219511
 30
0.0
 10
2.757623
 20
0.000292
 30
0.0
 10
1.910957
 20
0.000292
 30
0.0
  0
LWPOLYLINE
  5
15a
100
AcDbEntity
  8
!
 62
7
100
AcDbPolyline
 90
5
 70
0
 10
1.910957
 20
8.128291
 30
0.0
 10
2.757623
 20
8.128291
 30
0.0
 10
2.757623
 20
2.258205
 30
0.0
 10
1.910957
 20
2.258205
 30
0.0
 10
1.910957
 20
8.128291
 30
0.0
  0
LWPOLYLINE
  5
15b
100
AcDbEntity
  8
@
 62
7
100
AcDbPolyline
 90
45
 70
0
 10
2.857769
 20
5.983391
 30
0.0
 10
3.214120
 20
5.870565
 30
0.0
 10
3.506845
 20
5.554475
 30
0.0
 10
3.704399
 20
5.085945
 30
0.0
 10
3.775024
 20
4.515781
 30
0.0
 10
3.775024
 20
3.138778
 30
0.0
 10
4.318271
 20
3.138778
 30
0.0
 10
4.318271
 20
6.660697
 30
0.0
 10
4.272409
 20
6.835706
 30
0.0
 10
4.163027
 20
6.909088
 30
0.0
 10
0.917537
 20
6.909088
 30
0.0
 10
0.808156
 20
6.835706
 30
0.0
 10
0.762293
 20
6.660697
 30
0.0
 10
0.762293
 20
1.467903
 30
0.0
 10
0.808156
 20
1.292894
 30
0.0
 10
0.917537
 20
1.219512
 30
0.0
 10
5.080282
 20
1.219512
 30
0.0
 10
5.080282
 20
0.000293
 30
0.0
 10
0.917537
 20
0.000293
 30
0.0
 10
0.561186
 20
0.113122
 30
0.0
 10
0.268353
 20
0.429209
 30
0.0
 10
0.070799
 20
0.897742
 30
0.0
 10
0.000282
 20
1.467903
 30
0.0
 10
0.000282
 20
6.660697
 30
0.0
 10
0.070799
 20
7.230862
 30
0.0
 10
0.268353
 20
7.699392
 30
0.0
 10
0.561186
 20
8.015482
 30
0.0
 10
0.917537
 20
8.128307
 30
0.0
 10
4.163027
 20
8.128307
 30
0.0
 10
4.519378
 20
8.015482
 30
0.0
 10
4.812104
 20
7.699392
 30
0.0
 10
5.009658
 20
7.230862
 30
0.0
 10
5.080282
 20
6.660697
 30
0.0
 10
5.080282
 20
2.145210
 30
0.0
 10
2.222796
 20
2.145210
 30
0.0
 10
1.866444
 20
2.258039
 30
0.0
 10
1.573612
 20
2.574125
 30
0.0
 10
1.376057
 20
3.042659
 30
0.0
 10
1.305541
 20
3.612820
 30
0.0
 10
1.305541
 20
4.515781
 30
0.0
 10
1.376057
 20
5.085945
 30
0.0
 10
1.573612
 20
5.554475
 30
0.0
 10
1.866444
 20
5.870565
 30
0.0
 10
2.222796
 20
5.983391
 30
0.0
 10
2.857769
 20
5.983391
 30
0.0
  0
LWPOLYLINE
  5
15c
100
AcDbEntity
  8
@
 62
7
100
AcDbPolyline
 90
11
 70
0
 10
3.154046
 20
3.138778
 30
0.0
 10
3.154046
 20
4.741778
 30
0.0
 10
3.108184
 20
4.916444
 30
0.0
 10
2.998802
 20
4.989826
 30
0.0
 10
2.081547
 20
4.989826
 30
0.0
 10
1.972165
 20
4.916444
 30
0.0
 10
1.926303
 20
4.741778
 30
0.0
 10
1.926303
 20
3.386822
 30
0.0
 10
1.972165
 20
3.211985
 30
0.0
 10
2.081547
 20
3.138778
 30
0.0
 10
3.154046
 20
3.138778
 30
0.0
  0
LWPOLYLINE
  5
15d
100
AcDbEntity
  8
#
 62
7
100
AcDbPolyline
 90
29
 70
0
 10
5.080282
 20
5.080417
 30
0.0
 10
4.255435
 20
5.080417
 30
0.0
 10
3.853586
 20
3.070894
 30
0.0
 10
4.865399
 20
3.070894
 30
0.0
 10
4.865399
 20
1.851674
 30
0.0
 10
3.617765
 20
1.851674
 30
0.0
 10
3.271329
 20
0.000280
 30
0.0
 10
2.522834
 20
0.000280
 30
0.0
 10
2.869481
 20
1.851674
 30
0.0
 10
1.379257
 20
1.851674
 30
0.0
 10
1.032821
 20
0.000280
 30
0.0
 10
0.284326
 20
0.000280
 30
0.0
 10
0.630761
 20
1.851674
 30
0.0
 10
0.000282
 20
1.851674
 30
0.0
 10
0.000282
 20
3.070894
 30
0.0
 10
0.866583
 20
3.070894
 30
0.0
 10
1.268432
 20
5.080417
 30
0.0
 10
0.214954
 20
5.080417
 30
0.0
 10
0.214954
 20
6.299637
 30
0.0
 10
1.504042
 20
6.299637
 30
0.0
 10
1.878395
 20
8.094531
 30
0.0
 10
2.626891
 20
8.094531
 30
0.0
 10
2.252537
 20
6.299637
 30
0.0
 10
3.742549
 20
6.299637
 30
0.0
 10
4.116903
 20
8.094531
 30
0.0
 10
4.865399
 20
8.094531
 30
0.0
 10
4.491045
 20
6.299637
 30
0.0
 10
5.080282
 20
6.299637
 30
0.0
 10
5.080282
 20
5.080417
 30
0.0
  0
LWPOLYLINE
  5
15e
100
AcDbEntity
  8
#
 62
7
100
AcDbPolyline
 90
5
 70
0
 10
3.105091
 20
3.070894
 30
0.0
 10
3.506939
 20
5.080417
 30
0.0
 10
2.016927
 20
5.080417
 30
0.0
 10
1.615079
 20
3.070894
 30
0.0
 10
3.105091
 20
3.070894
 30
0.0
  0
LWPOLYLINE
  5
15f
100
AcDbEntity
  8
$
 62
7
100
AcDbPolyline
 90
53
 70
0
 10
5.080282
 20
6.155387
 30
0.0
 10
4.318271
 20
6.155387
 30
0.0
 10
4.318271
 20
6.629429
 30
0.0
 10
4.272409
 20
6.804441
 30
0.0
 10
4.163027
 20
6.877820
 30
0.0
 10
2.921288
 20
6.877820
 30
0.0
 10
2.921288
 20
4.642643
 30
0.0
 10
4.163027
 20
4.642643
 30
0.0
 10
4.519379
 20
4.529817
 30
0.0
 10
4.812211
 20
4.213731
 30
0.0
 10
5.009766
 20
3.745197
 30
0.0
 10
5.080282
 20
3.175033
 30
0.0
 10
5.080282
 20
1.436638
 30
0.0
 10
5.009766
 20
0.866474
 30
0.0
 10
4.812211
 20
0.397940
 30
0.0
 10
4.519379
 20
0.081854
 30
0.0
 10
4.163027
 20
-0.030972
 30
0.0
 10
2.921288
 20
-0.030972
 30
0.0
 10
2.921288
 20
-1.250191
 30
0.0
 10
2.159277
 20
-1.250191
 30
0.0
 10
2.159277
 20
-0.030972
 30
0.0
 10
0.917537
 20
-0.030972
 30
0.0
 10
0.561186
 20
0.081854
 30
0.0
 10
0.268353
 20
0.397940
 30
0.0
 10
0.070799
 20
0.866474
 30
0.0
 10
0.000282
 20
1.436638
 30
0.0
 10
0.000282
 20
1.910684
 30
0.0
 10
0.762293
 20
1.910684
 30
0.0
 10
0.762293
 20
1.436638
 30
0.0
 10
0.808156
 20
1.261626
 30
0.0
 10
0.917537
 20
1.188247
 30
0.0
 10
2.159277
 20
1.188247
 30
0.0
 10
2.159277
 20
3.423424
 30
0.0
 10
0.917537
 20
3.423424
 30
0.0
 10
0.561186
 20
3.536250
 30
0.0
 10
0.268353
 20
3.852340
 30
0.0
 10
0.070799
 20
4.320873
 30
0.0
 10
0.000282
 20
4.891034
 30
0.0
 10
0.000282
 20
6.629429
 30
0.0
 10
0.070799
 20
7.199593
 30
0.0
 10
0.268353
 20
7.668127
 30
0.0
 10
0.561186
 20
7.984213
 30
0.0
 10
0.917537
 20
8.097042
 30
0.0
 10
2.159277
 20
8.097042
 30
0.0
 10
2.159277
 20
9.316261
 30
0.0
 10
2.921288
 20
9.316261
 30
0.0
 10
2.921288
 20
8.097042
 30
0.0
 10
4.163027
 20
8.097042
 30
0.0
 10
4.519379
 20
7.984213
 30
0.0
 10
4.812211
 20
7.668127
 30
0.0
 10
5.009766
 20
7.199593
 30
0.0
 10
5.080282
 20
6.629429
 30
0.0
 10
5.080282
 20
6.155387
 30
0.0
  0
LWPOLYLINE
  5
160
100
AcDbEntity
  8
$
 62
7
100
AcDbPolyline
 90
9
 70
0
 10
2.921288
 20
3.423424
 30
0.0
 10
2.921288
 20
1.188247
 30
0.0
 10
4.163027
 20
1.188247
 30
0.0
 10
4.272409
 20
1.261626
 30
0.0
 10
4.318271
 20
1.436638
 30
0.0
 10
4.318271
 20
3.175033
 30
0.0
 10
4.272409
 20
3.350046
 30
0.0
 10
4.163027
 20
3.423424
 30
0.0
 10
2.921288
 20
3.423424
 30
0.0
  0
LWPOLYLINE
  5
161
100
AcDbEntity
  8
$
 62
7
100
AcDbPolyline
 90
10
 70
0
 10
2.159277
 20
4.642643
 30
0.0
 10
2.159277
 20
6.877820
 30
0.0
 10
0.917537
 20
6.877820
 30
0.0
 10
0.808156
 20
6.804441
 30
0.0
 10
0.762293
 20
6.629429
 30
0.0
 10
0.762293
 20
4.891034
 30
0.0
 10
0.808156
 20
4.716025
 30
0.0
 10
0.917537
 20
4.642643
 30
0.0
 10
1.601818
 20
4.642643
 30
0.0
 10
2.159277
 20
4.642643
 30
0.0
  0
LWPOLYLINE
  5
162
100
AcDbEntity
  8
%
 62
7
100
AcDbPolyline
 90
7
 70
0
 10
4.705739
 20
8.139669
 30
0.0
 10
4.705739
 20
6.694796
 30
0.0
 10
0.579690
 20
0.011658
 30
0.0
 10
0.491814
 20
0.011658
 30
0.0
 10
0.491814
 20
1.456530
 30
0.0
 10
4.618042
 20
8.139669
 30
0.0
 10
4.705739
 20
8.139669
 30
0.0
  0
LWPOLYLINE
  5
163
100
AcDbEntity
  8
%
 62
7
100
AcDbPolyline
 90
21
 70
0
 10
1.287875
 20
8.139669
 30
0.0
 10
1.583473
 20
8.026844
 30
0.0
 10
1.826292
 20
7.710757
 30
0.0
 10
1.990166
 20
7.242221
 30
0.0
 10
2.048750
 20
6.672059
 30
0.0
 10
2.048750
 20
5.769100
 30
0.0
 10
1.990166
 20
5.198938
 30
0.0
 10
1.826292
 20
4.730402
 30
0.0
 10
1.583473
 20
4.414315
 30
0.0
 10
1.287875
 20
4.301490
 30
0.0
 10
0.761157
 20
4.301490
 30
0.0
 10
0.465559
 20
4.414315
 30
0.0
 10
0.222651
 20
4.730402
 30
0.0
 10
0.058777
 20
5.198938
 30
0.0
 10
0.000282
 20
5.769100
 30
0.0
 10
0.000282
 20
6.672059
 30
0.0
 10
0.058777
 20
7.242221
 30
0.0
 10
0.222651
 20
7.710757
 30
0.0
 10
0.465559
 20
8.026844
 30
0.0
 10
0.761157
 20
8.139669
 30
0.0
 10
1.287875
 20
8.139669
 30
0.0
  0
LWPOLYLINE
  5
164
100
AcDbEntity
  8
%
 62
7
100
AcDbPolyline
 90
13
 70
0
 10
1.404864
 20
5.294709
 30
0.0
 10
1.495598
 20
5.368091
 30
0.0
 10
1.533641
 20
5.543101
 30
0.0
 10
1.533641
 20
6.897713
 30
0.0
 10
1.495598
 20
7.072723
 30
0.0
 10
1.404864
 20
7.146105
 30
0.0
 10
0.643989
 20
7.146105
 30
0.0
 10
0.553256
 20
7.072723
 30
0.0
 10
0.515212
 20
6.897713
 30
0.0
 10
0.515212
 20
5.543101
 30
0.0
 10
0.553256
 20
5.368091
 30
0.0
 10
0.643989
 20
5.294709
 30
0.0
 10
1.404864
 20
5.294709
 30
0.0
  0
LWPOLYLINE
  5
165
100
AcDbEntity
  8
%
 62
7
100
AcDbPolyline
 90
21
 70
0
 10
4.319586
 20
3.838470
 30
0.0
 10
4.615005
 20
3.725640
 30
0.0
 10
4.857914
 20
3.409553
 30
0.0
 10
5.021788
 20
2.941022
 30
0.0
 10
5.080282
 20
2.371200
 30
0.0
 10
5.080282
 20
1.467897
 30
0.0
 10
5.021788
 20
0.897735
 30
0.0
 10
4.857914
 20
0.429375
 30
0.0
 10
4.615005
 20
0.113288
 30
0.0
 10
4.319586
 20
0.000287
 30
0.0
 10
3.792868
 20
0.000287
 30
0.0
 10
3.497270
 20
0.113288
 30
0.0
 10
3.254361
 20
0.429375
 30
0.0
 10
3.090488
 20
0.897735
 30
0.0
 10
3.031993
 20
1.467897
 30
0.0
 10
3.031993
 20
2.371200
 30
0.0
 10
3.090488
 20
2.941022
 30
0.0
 10
3.254361
 20
3.409553
 30
0.0
 10
3.497270
 20
3.725640
 30
0.0
 10
3.792868
 20
3.838470
 30
0.0
 10
4.319586
 20
3.838470
 30
0.0
  0
LWPOLYLINE
  5
166
100
AcDbEntity
  8
%
 62
7
100
AcDbPolyline
 90
13
 70
0
 10
4.436575
 20
0.993854
 30
0.0
 10
4.527308
 20
1.067233
 30
0.0
 10
4.565352
 20
1.242242
 30
0.0
 10
4.565352
 20
2.596855
 30
0.0
 10
4.527308
 20
2.771868
 30
0.0
 10
4.436575
 20
2.845247
 30
0.0
 10
3.675700
 20
2.845247
 30
0.0
 10
3.584967
 20
2.771868
 30
0.0
 10
3.546923
 20
2.596855
 30
0.0
 10
3.546923
 20
1.242242
 30
0.0
 10
3.584967
 20
1.067233
 30
0.0
 10
3.675700
 20
0.993854
 30
0.0
 10
4.436575
 20
0.993854
 30
0.0
  0
LWPOLYLINE
  5
167
100
AcDbEntity
  8
^
 62
7
100
AcDbPolyline
 90
8
 70
0
 10
4.640930
 20
5.272251
 30
0.0
 10
2.829876
 20
8.094479
 30
0.0
 10
2.218650
 20
8.094479
 30
0.0
 10
0.407596
 20
5.272251
 30
0.0
 10
1.115023
 20
5.272251
 30
0.0
 10
2.524177
 20
7.500776
 30
0.0
 10
3.939030
 20
5.272251
 30
0.0
 10
4.640930
 20
5.272251
 30
0.0
  0
LWPOLYLINE
  5
168
100
AcDbEntity
  8
&
 62
7
100
AcDbPolyline
 90
41
 70
0
 10
5.080282
 20
1.208142
 30
0.0
 10
5.080282
 20
0.034054
 30
0.0
 10
4.258631
 20
0.914622
 30
0.0
 10
3.982703
 20
0.254369
 30
0.0
 10
3.538930
 20
0.000295
 30
0.0
 10
0.780018
 20
0.000295
 30
0.0
 10
0.477093
 20
0.113122
 30
0.0
 10
0.228163
 20
0.429208
 30
0.0
 10
0.060227
 20
0.897741
 30
0.0
 10
0.000282
 20
1.467904
 30
0.0
 10
0.000282
 20
3.770949
 30
0.0
 10
0.024260
 20
4.036049
 30
0.0
 10
0.099214
 20
4.318376
 30
0.0
 10
0.222123
 20
4.538520
 30
0.0
 10
0.390150
 20
4.628781
 30
0.0
 10
0.267058
 20
5.006879
 30
0.0
 10
0.240060
 20
5.486610
 30
0.0
 10
0.240060
 20
6.660698
 30
0.0
 10
0.300096
 20
7.230860
 30
0.0
 10
0.468032
 20
7.699394
 30
0.0
 10
0.716962
 20
8.015479
 30
0.0
 10
1.019797
 20
8.128306
 30
0.0
 10
3.359005
 20
8.128306
 30
0.0
 10
3.634842
 20
8.032360
 30
0.0
 10
3.868763
 20
7.772774
 30
0.0
 10
4.042739
 20
7.388988
 30
0.0
 10
4.138742
 20
6.909087
 30
0.0
 10
4.138742
 20
6.107413
 30
0.0
 10
3.490975
 20
6.107413
 30
0.0
 10
3.490975
 20
6.649330
 30
0.0
 10
3.451988
 20
6.824339
 30
0.0
 10
3.359005
 20
6.897719
 30
0.0
 10
1.019797
 20
6.897719
 30
0.0
 10
0.926814
 20
6.824339
 30
0.0
 10
0.887827
 20
6.649330
 30
0.0
 10
0.887827
 20
5.159323
 30
0.0
 10
3.670900
 20
2.517627
 30
0.0
 10
3.670900
 20
3.906341
 30
0.0
 10
4.318667
 20
3.906341
 30
0.0
 10
4.318667
 20
2.043580
 30
0.0
 10
5.080282
 20
1.208142
 30
0.0
  0
LWPOLYLINE
  5
169
100
AcDbEntity
  8
&
 62
7
100
AcDbPolyline
 90
10
 70
0
 10
3.538930
 20
1.219526
 30
0.0
 10
3.652779
 20
1.354918
 30
0.0
 10
0.845912
 20
4.019009
 30
0.0
 10
0.780018
 20
4.019009
 30
0.0
 10
0.687036
 20
3.945629
 30
0.0
 10
0.648049
 20
3.770961
 30
0.0
 10
0.648049
 20
1.467915
 30
0.0
 10
0.687036
 20
1.292906
 30
0.0
 10
0.780018
 20
1.219526
 30
0.0
 10
3.538930
 20
1.219526
 30
0.0
  0
LWPOLYLINE
  5
16a
100
AcDbEntity
  8
*
 62
7
100
AcDbPolyline
 90
16
 70
0
 10
4.329406
 20
6.120922
 30
0.0
 10
3.052756
 20
5.686471
 30
0.0
 10
3.839897
 20
4.534864
 30
0.0
 10
3.004714
 20
3.898171
 30
0.0
 10
2.207906
 20
5.039904
 30
0.0
 10
1.420765
 20
3.898171
 30
0.0
 10
0.585582
 20
4.534864
 30
0.0
 10
1.372723
 20
5.686471
 30
0.0
 10
0.096073
 20
6.120922
 30
0.0
 10
0.413038
 20
7.161520
 30
0.0
 10
1.689688
 20
6.717224
 30
0.0
 10
1.689688
 20
8.131511
 30
0.0
 10
2.726417
 20
8.131511
 30
0.0
 10
2.726417
 20
6.717224
 30
0.0
 10
4.003067
 20
7.161520
 30
0.0
 10
4.329406
 20
6.120922
 30
0.0
  0
LWPOLYLINE
  5
16b
100
AcDbEntity
  8
(
 62
7
100
AcDbPolyline
 90
21
 70
0
 10
3.085272
 20
1.219515
 30
0.0
 10
3.085272
 20
0.000298
 30
0.0
 10
2.706305
 20
0.000298
 30
0.0
 10
2.250498
 20
0.113126
 30
0.0
 10
1.875938
 20
0.429210
 30
0.0
 10
1.623247
 20
0.897746
 30
0.0
 10
1.533050
 20
1.467907
 30
0.0
 10
1.533050
 20
6.660701
 30
0.0
 10
1.623247
 20
7.230862
 30
0.0
 10
1.875938
 20
7.699398
 30
0.0
 10
2.250498
 20
8.015482
 30
0.0
 10
2.706305
 20
8.128310
 30
0.0
 10
3.085272
 20
8.128310
 30
0.0
 10
3.085272
 20
6.909092
 30
0.0
 10
2.706305
 20
6.909092
 30
0.0
 10
2.566396
 20
6.835711
 30
0.0
 10
2.507733
 20
6.660701
 30
0.0
 10
2.507733
 20
1.467907
 30
0.0
 10
2.566396
 20
1.292897
 30
0.0
 10
2.706305
 20
1.219515
 30
0.0
 10
3.085272
 20
1.219515
 30
0.0
  0
LWPOLYLINE
  5
16c
100
AcDbEntity
  8
)
 62
7
100
AcDbPolyline
 90
21
 70
0
 10
1.950246
 20
1.219515
 30
0.0
 10
2.329213
 20
1.219515
 30
0.0
 10
2.469122
 20
1.292897
 30
0.0
 10
2.527785
 20
1.467907
 30
0.0
 10
2.527785
 20
6.660701
 30
0.0
 10
2.469122
 20
6.835711
 30
0.0
 10
2.329213
 20
6.909092
 30
0.0
 10
1.950246
 20
6.909092
 30
0.0
 10
1.950246
 20
8.128310
 30
0.0
 10
2.329213
 20
8.128310
 30
0.0
 10
2.785020
 20
8.015482
 30
0.0
 10
3.155036
 20
7.699398
 30
0.0
 10
3.407726
 20
7.230862
 30
0.0
 10
3.502468
 20
6.660701
 30
0.0
 10
3.502468
 20
1.467907
 30
0.0
 10
3.407726
 20
0.897746
 30
0.0
 10
3.155036
 20
0.429210
 30
0.0
 10
2.785020
 20
0.113126
 30
0.0
 10
2.329213
 20
0.000298
 30
0.0
 10
1.950246
 20
0.000298
 30
0.0
 10
1.950246
 20
1.219515
 30
0.0
  0
LWPOLYLINE
  5
16d
100
AcDbEntity
  8
_
 62
7
100
AcDbPolyline
 90
5
 70
0
 10
5.080282
 20
-0.834545
 30
0.0
 10
0.000282
 20
-0.834545
 30
0.0
 10
0.000282
 20
0.012122
 30
0.0
 10
5.080282
 20
0.012122
 30
0.0
 10
5.080282
 20
-0.834545
 30
0.0
  0
LWPOLYLINE
  5
16e
100
AcDbEntity
  8
-
 62
7
100
AcDbPolyline
 90
5
 70
0
 10
4.456630
 20
3.484170
 30
0.0
 10
0.505519
 20
3.484170
 30
0.0
 10
0.505519
 20
4.703389
 30
0.0
 10
4.456630
 20
4.703389
 30
0.0
 10
4.456630
 20
3.484170
 30
0.0
  0
LWPOLYLINE
  5
16f
100
AcDbEntity
  8
+
 62
7
100
AcDbPolyline
 90
13
 70
0
 10
2.991404
 20
6.332248
 30
0.0
 10
2.991404
 20
4.695484
 30
0.0
 10
4.453137
 20
4.695484
 30
0.0
 10
4.453137
 20
3.476263
 30
0.0
 10
2.991404
 20
3.476263
 30
0.0
 10
2.991404
 20
1.816763
 30
0.0
 10
1.924571
 20
1.816763
 30
0.0
 10
1.924571
 20
3.476263
 30
0.0
 10
0.502026
 20
3.476263
 30
0.0
 10
0.502026
 20
4.695484
 30
0.0
 10
1.924571
 20
4.695484
 30
0.0
 10
1.924571
 20
6.332248
 30
0.0
 10
2.991404
 20
6.332248
 30
0.0
  0
LWPOLYLINE
  5
170
100
AcDbEntity
  8
=
 62
7
100
AcDbPolyline
 90
5
 70
0
 10
5.080282
 20
2.343199
 30
0.0
 10
0.000282
 20
2.343199
 30
0.0
 10
0.000282
 20
3.562417
 30
0.0
 10
5.080282
 20
3.562417
 30
0.0
 10
5.080282
 20
2.343199
 30
0.0
  0
LWPOLYLINE
  5
171
100
AcDbEntity
  8
=
 62
7
100
AcDbPolyline
 90
5
 70
0
 10
5.080282
 20
4.488113
 30
0.0
 10
0.000282
 20
4.488113
 30
0.0
 10
0.000282
 20
5.707334
 30
0.0
 10
5.080282
 20
5.707334
 30
0.0
 10
5.080282
 20
4.488113
 30
0.0
  0
LWPOLYLINE
  5
172
100
AcDbEntity
  8
{
 62
7
100
AcDbPolyline
 90
28
 70
0
 10
2.527378
 20
1.467907
 30
0.0
 10
2.582582
 20
1.292896
 30
0.0
 10
2.714243
 20
1.219516
 30
0.0
 10
3.071128
 20
1.219516
 30
0.0
 10
3.071128
 20
0.000296
 30
0.0
 10
2.714243
 20
0.000296
 30
0.0
 10
2.285437
 20
0.113123
 30
0.0
 10
1.932958
 20
0.429209
 30
0.0
 10
1.695165
 20
0.897741
 30
0.0
 10
1.610155
 20
1.467907
 30
0.0
 10
1.610155
 20
3.229039
 30
0.0
 10
1.236683
 20
3.522560
 30
0.0
 10
1.236683
 20
4.741780
 30
0.0
 10
1.610155
 20
5.023933
 30
0.0
 10
1.610155
 20
6.660697
 30
0.0
 10
1.695165
 20
7.230862
 30
0.0
 10
1.932958
 20
7.699394
 30
0.0
 10
2.285437
 20
8.015481
 30
0.0
 10
2.714243
 20
8.128307
 30
0.0
 10
3.071128
 20
8.128307
 30
0.0
 10
3.071128
 20
6.909091
 30
0.0
 10
2.714243
 20
6.909091
 30
0.0
 10
2.582582
 20
6.835711
 30
0.0
 10
2.527378
 20
6.660697
 30
0.0
 10
2.527378
 20
4.752804
 30
0.0
 10
1.933088
 20
4.131999
 30
0.0
 10
2.527378
 20
3.477430
 30
0.0
 10
2.527378
 20
1.467907
 30
0.0
  0
LWPOLYLINE
  5
173
100
AcDbEntity
  8
}
 62
7
100
AcDbPolyline
 90
28
 70
0
 10
2.499265
 20
3.477430
 30
0.0
 10
3.093813
 20
4.131999
 30
0.0
 10
2.499265
 20
4.752804
 30
0.0
 10
2.499265
 20
6.660697
 30
0.0
 10
2.444060
 20
6.835711
 30
0.0
 10
2.312399
 20
6.909091
 30
0.0
 10
1.955773
 20
6.909091
 30
0.0
 10
1.955773
 20
8.128307
 30
0.0
 10
2.312399
 20
8.128307
 30
0.0
 10
2.741334
 20
8.015481
 30
0.0
 10
3.093813
 20
7.699394
 30
0.0
 10
3.331607
 20
7.230862
 30
0.0
 10
3.416487
 20
6.660697
 30
0.0
 10
3.416487
 20
5.023933
 30
0.0
 10
3.790218
 20
4.741780
 30
0.0
 10
3.790218
 20
3.522560
 30
0.0
 10
3.416487
 20
3.229039
 30
0.0
 10
3.416487
 20
1.467907
 30
0.0
 10
3.331607
 20
0.897741
 30
0.0
 10
3.093813
 20
0.429209
 30
0.0
 10
2.741334
 20
0.113123
 30
0.0
 10
2.312399
 20
0.000296
 30
0.0
 10
1.955773
 20
0.000296
 30
0.0
 10
1.955773
 20
1.219516
 30
0.0
 10
2.312399
 20
1.219516
 30
0.0
 10
2.444060
 20
1.292896
 30
0.0
 10
2.499265
 20
1.467907
 30
0.0
 10
2.499265
 20
3.477430
 30
0.0
  0
LWPOLYLINE
  5
174
100
AcDbEntity
  8
[
 62
7
100
AcDbPolyline
 90
9
 70
0
 10
1.508827
 20
8.128298
 30
0.0
 10
3.061049
 20
8.128298
 30
0.0
 10
3.061049
 20
6.909080
 30
0.0
 10
2.483337
 20
6.909080
 30
0.0
 10
2.483337
 20
1.219506
 30
0.0
 10
3.061049
 20
1.219506
 30
0.0
 10
3.061049
 20
0.000284
 30
0.0
 10
1.508827
 20
0.000284
 30
0.0
 10
1.508827
 20
8.128298
 30
0.0
  0
LWPOLYLINE
  5
175
100
AcDbEntity
  8
]
 62
7
100
AcDbPolyline
 90
9
 70
0
 10
1.955773
 20
8.128310
 30
0.0
 10
3.507995
 20
8.128310
 30
0.0
 10
3.507995
 20
0.000298
 30
0.0
 10
1.955773
 20
0.000298
 30
0.0
 10
1.955773
 20
1.219515
 30
0.0
 10
2.533312
 20
1.219515
 30
0.0
 10
2.533312
 20
6.909092
 30
0.0
 10
1.955773
 20
6.909092
 30
0.0
 10
1.955773
 20
8.128310
 30
0.0
  0
LWPOLYLINE
  5
176
100
AcDbEntity
  8
|
 62
7
100
AcDbPolyline
 90
13
 70
0
 10
0.149533
 20
8.128306
 30
0.0
 10
5.080282
 20
1.445164
 30
0.0
 10
5.080282
 20
0.000291
 30
0.0
 10
4.930727
 20
0.000291
 30
0.0
 10
0.000282
 20
6.683432
 30
0.0
 10
0.000282
 20
8.128306
 30
0.0
 10
0.149533
 20
8.128306
 30
0.0
 10
5.080282
 20
1.445148
 30
0.0
 10
5.080282
 20
0.000284
 30
0.0
 10
4.930727
 20
0.000284
 30
0.0
 10
0.000282
 20
6.683419
 30
0.0
 10
0.000282
 20
8.128284
 30
0.0
 10
0.149533
 20
8.128284
 30
0.0
  0
LWPOLYLINE
  5
177
100
AcDbEntity
  8
:
 62
7
100
AcDbPolyline
 90
5
 70
0
 10
2.867215
 20
1.219546
 30
0.0
 10
2.867215
 20
0.000300
 30
0.0
 10
2.020549
 20
0.000300
 30
0.0
 10
2.020549
 20
1.219546
 30
0.0
 10
2.867215
 20
1.219546
 30
0.0
  0
LWPOLYLINE
  5
178
100
AcDbEntity
  8
:
 62
7
100
AcDbPolyline
 90
5
 70
0
 10
2.867215
 20
5.419205
 30
0.0
 10
2.020549
 20
5.419205
 30
0.0
 10
2.020549
 20
6.638451
 30
0.0
 10
2.867215
 20
6.638451
 30
0.0
 10
2.867215
 20
5.419205
 30
0.0
  0
LWPOLYLINE
  5
179
100
AcDbEntity
  8
;
 62
7
100
AcDbPolyline
 90
5
 70
0
 10
2.848960
 20
5.403270
 30
0.0
 10
2.002293
 20
5.403270
 30
0.0
 10
2.002293
 20
6.622490
 30
0.0
 10
2.848960
 20
6.622490
 30
0.0
 10
2.848960
 20
5.403270
 30
0.0
  0
LWPOLYLINE
  5
17a
100
AcDbEntity
  8
;
 62
7
100
AcDbPolyline
 90
8
 70
0
 10
2.848960
 20
1.203699
 30
0.0
 10
2.848960
 20
-0.015521
 30
0.0
 10
2.782332
 20
-0.534694
 30
0.0
 10
2.602065
 20
-0.974978
 30
0.0
 10
2.335553
 20
-1.291065
 30
0.0
 10
2.002293
 20
-1.460393
 30
0.0
 10
2.002293
 20
1.203699
 30
0.0
 10
2.848960
 20
1.203699
 30
0.0
  0
LWPOLYLINE
  5
17b
100
AcDbEntity
  8
'
 62
7
100
AcDbPolyline
 90
5
 70
0
 10
2.413609
 20
6.311873
 30
0.0
 10
1.696435
 20
6.311873
 30
0.0
 10
1.696435
 20
8.140391
 30
0.0
 10
2.413609
 20
8.140391
 30
0.0
 10
2.413609
 20
6.311873
 30
0.0
  0
LWPOLYLINE
  5
17c
100
AcDbEntity
  8
'
 62
7
100
AcDbPolyline
 90
5
 70
0
 10
3.389768
 20
6.311873
 30
0.0
 10
2.672594
 20
6.311873
 30
0.0
 10
2.672594
 20
8.140391
 30
0.0
 10
3.389768
 20
8.140391
 30
0.0
 10
3.389768
 20
6.311873
 30
0.0
  0
LWPOLYLINE
  5
17d
100
AcDbEntity
  8
"
 62
7
100
AcDbPolyline
 90
5
 70
0
 10
2.429115
 20
6.296351
 30
0.0
 10
1.711941
 20
6.296351
 30
0.0
 10
1.711941
 20
8.124869
 30
0.0
 10
2.429115
 20
8.124869
 30
0.0
 10
2.429115
 20
6.296351
 30
0.0
  0
LWPOLYLINE
  5
17e
100
AcDbEntity
  8
"
 62
7
100
AcDbPolyline
 90
5
 70
0
 10
3.405275
 20
6.296351
 30
0.0
 10
2.688101
 20
6.296351
 30
0.0
 10
2.688101
 20
8.124869
 30
0.0
 10
3.405275
 20
8.124869
 30
0.0
 10
3.405275
 20
6.296351
 30
0.0
  0
LWPOLYLINE
  5
17f
100
AcDbEntity
  8
,
 62
7
100
AcDbPolyline
 90
8
 70
0
 10
2.836202
 20
1.203719
 30
0.0
 10
2.836202
 20
-0.015497
 30
0.0
 10
2.769574
 20
-0.534674
 30
0.0
 10
2.589307
 20
-0.974957
 30
0.0
 10
2.322795
 20
-1.291044
 30
0.0
 10
1.989535
 20
-1.460372
 30
0.0
 10
1.989535
 20
1.203719
 30
0.0
 10
2.836202
 20
1.203719
 30
0.0
  0
LWPOLYLINE
  5
180
100
AcDbEntity
  8
.
 62
7
100
AcDbPolyline
 90
5
 70
0
 10
2.836202
 20
-0.015436
 30
0.0
 10
1.989535
 20
-0.015436
 30
0.0
 10
1.989535
 20
1.203784
 30
0.0
 10
2.836202
 20
1.203784
 30
0.0
 10
2.836202
 20
-0.015436
 30
0.0
  0
LWPOLYLINE
  5
181
100
AcDbEntity
  8
/
 62
7
100
AcDbPolyline
 90
7
 70
0
 10
4.931023
 20
8.128312
 30
0.0
 10
5.080282
 20
8.128312
 30
0.0
 10
5.080282
 20
6.683436
 30
0.0
 10
0.149542
 20
0.000297
 30
0.0
 10
0.000282
 20
0.000297
 30
0.0
 10
0.000282
 20
1.445169
 30
0.0
 10
4.931023
 20
8.128312
 30
0.0
  0
LWPOLYLINE
  5
182
100
AcDbEntity
  8
<
 62
7
100
AcDbPolyline
 90
8
 70
0
 10
4.475914
 20
2.401323
 30
0.0
 10
4.475914
 20
1.130611
 30
0.0
 10
0.242580
 20
3.550131
 30
0.0
 10
0.242580
 20
4.648024
 30
0.0
 10
4.475914
 20
7.057283
 30
0.0
 10
4.475914
 20
5.786571
 30
0.0
 10
1.499346
 20
4.098924
 30
0.0
 10
4.475914
 20
2.401323
 30
0.0
  0
LWPOLYLINE
  5
183
100
AcDbEntity
  8
>
 62
7
100
AcDbPolyline
 90
8
 70
0
 10
0.224847
 20
2.416670
 30
0.0
 10
0.224847
 20
1.145965
 30
0.0
 10
4.458181
 20
3.565484
 30
0.0
 10
4.458181
 20
4.663385
 30
0.0
 10
0.224847
 20
7.072631
 30
0.0
 10
0.224847
 20
5.801926
 30
0.0
 10
3.201415
 20
4.114265
 30
0.0
 10
0.224847
 20
2.416670
 30
0.0
  0
LWPOLYLINE
  5
184
100
AcDbEntity
  8
?
 62
7
100
AcDbPolyline
 90
29
 70
0
 10
4.027193
 20
8.128312
 30
0.0
 10
4.436164
 20
8.015484
 30
0.0
 10
4.772441
 20
7.699398
 30
0.0
 10
4.999304
 20
7.230865
 30
0.0
 10
5.080282
 20
6.660700
 30
0.0
 10
5.080282
 20
4.583655
 30
0.0
 10
4.999304
 20
4.013490
 30
0.0
 10
4.772441
 20
3.544957
 30
0.0
 10
4.436164
 20
3.228870
 30
0.0
 10
4.027193
 20
3.116043
 30
0.0
 10
1.928679
 20
3.116043
 30
0.0
 10
1.803070
 20
3.042661
 30
0.0
 10
1.750403
 20
2.867651
 30
0.0
 10
1.750403
 20
2.246845
 30
0.0
 10
0.875343
 20
2.246845
 30
0.0
 10
0.875343
 20
2.867651
 30
0.0
 10
0.956321
 20
3.437816
 30
0.0
 10
1.183184
 20
3.906349
 30
0.0
 10
1.519461
 20
4.222436
 30
0.0
 10
1.928679
 20
4.335263
 30
0.0
 10
4.027193
 20
4.335263
 30
0.0
 10
4.152555
 20
4.408642
 30
0.0
 10
4.205222
 20
4.583655
 30
0.0
 10
4.205222
 20
6.660700
 30
0.0
 10
4.152555
 20
6.835713
 30
0.0
 10
4.027193
 20
6.909092
 30
0.0
 10
0.000282
 20
6.909092
 30
0.0
 10
0.000282
 20
8.128312
 30
0.0
 10
4.027193
 20
8.128312
 30
0.0
  0
LWPOLYLINE
  5
185
100
AcDbEntity
  8
?
 62
7
100
AcDbPolyline
 90
5
 70
0
 10
0.875343
 20
0.000300
 30
0.0
 10
0.875343
 20
1.219517
 30
0.0
 10
1.750403
 20
1.219517
 30
0.0
 10
1.750403
 20
0.000300
 30
0.0
 10
0.875343
 20
0.000300
 30
0.0
  0
ENDSEC
  0
SECTION
  2
OBJECTS
  0
DICTIONARY
  5
C
330
0
100
AcDbDictionary
  3
ACAD_GROUP
350
D
  3
ACAD_MLINESTYLE
350
17
  0
DICTIONARY
  5
D
330
C
100
AcDbDictionary
  0
DICTIONARY
  5
1A
330
C
100
AcDbDictionary
  0
DICTIONARY
  5
17
330
C
100
AcDbDictionary
  3
STANDARD
350
18
  0
DICTIONARY
  5
19
330
C
100
AcDbDictionary
  0
ENDSEC
  0
EOF
