999
"DXF R12 Output" (www.mydxf.blogspot.com)
 0 
SECTION
 2 
HEADER
 9 
$ACADVER
 1 
AC1009
 9 
$EXTMIN
 10 
 0 
 20 
 0 
 9 
$EXTMAX
 10 
 8.5 
 20 
 11 
 0 
ENDSEC
 0 
SECTION
 2 
ENTITIES
0
LINE
8
Layer 1
10
18.320800
20
5.473940
11
18.320800
21
11.169800
0
LINE
8
Layer 1
10
18.320800
20
11.169800
11
18.914850
21
11.458090
0
LINE
8
Layer 1
10
18.914850
20
11.458090
11
19.819403
21
12.189185
0
LINE
8
Layer 1
10
19.819403
20
12.189185
11
20.493612
21
13.156154
0
LINE
8
Layer 1
10
20.493612
20
13.156154
11
20.934815
21
14.318045
0
LINE
8
Layer 1
10
20.934815
20
14.318045
11
21.140350
21
15.633909
0
LINE
8
Layer 1
10
21.140350
20
15.633909
11
21.107556
21
17.062795
0
LINE
8
Layer 1
10
21.107556
20
17.062795
11
20.833771
21
18.563755
0
LINE
8
Layer 1
10
20.833771
20
18.563755
11
20.316333
21
20.095836
0
LINE
8
Layer 1
10
20.316333
20
20.095836
11
19.552580
21
21.618090
0
LINE
8
Layer 1
10
19.552580
20
21.618090
11
18.589017
21
23.022259
0
LINE
8
Layer 1
10
18.589017
20
23.022259
11
17.498507
21
24.215730
0
LINE
8
Layer 1
10
17.498507
20
24.215730
11
16.317907
21
25.181103
0
LINE
8
Layer 1
10
16.317907
20
25.181103
11
15.084072
21
25.900974
0
LINE
8
Layer 1
10
15.084072
20
25.900974
11
13.833859
21
26.357941
0
LINE
8
Layer 1
10
13.833859
20
26.357941
11
12.604122
21
26.534603
0
LINE
8
Layer 1
10
12.604122
20
26.534603
11
11.431717
21
26.413557
0
LINE
8
Layer 1
10
11.431717
20
26.413557
11
10.353500
21
25.977400
0
LINE
8
Layer 1
10
10.353500
20
25.977400
11
9.448947
21
25.246305
0
LINE
8
Layer 1
10
9.448947
20
25.246305
11
8.774738
21
24.279336
0
LINE
8
Layer 1
10
8.774738
20
24.279336
11
8.333535
21
23.117445
0
LINE
8
Layer 1
10
8.333535
20
23.117445
11
8.128000
21
21.801581
0
LINE
8
Layer 1
10
8.128000
20
21.801581
11
8.160794
21
20.372695
0
LINE
8
Layer 1
10
8.160794
20
20.372695
11
8.434579
21
18.871735
0
LINE
8
Layer 1
10
8.434579
20
18.871735
11
8.952017
21
17.339654
0
LINE
8
Layer 1
10
8.952017
20
17.339654
11
9.715770
21
15.817400
0
LINE
8
Layer 1
10
9.715770
20
15.817400
11
10.982490
21
14.043990
0
LINE
8
Layer 1
10
10.982490
20
14.043990
11
10.982500
21
9.815750
0
LINE
8
Layer 1
10
10.982500
20
9.815750
11
5.129380
21
13.161600
0
LINE
8
Layer 1
10
5.129380
20
13.161600
11
5.129380
21
34.136800
0
LINE
8
Layer 1
10
5.129380
20
34.136800
11
3.076420
21
35.490900
0
LINE
8
Layer 1
10
3.076420
20
35.490900
11
1.829078
21
32.846097
0
LINE
8
Layer 1
10
1.829078
20
32.846097
11
0.907699
21
30.037475
0
LINE
8
Layer 1
10
0.907699
20
30.037475
11
0.336853
21
27.087966
0
LINE
8
Layer 1
10
0.336853
20
27.087966
11
0.141111
21
24.020500
0
LINE
8
Layer 1
10
0.141111
20
24.020500
11
0.259421
21
21.627918
0
LINE
8
Layer 1
10
0.259421
20
21.627918
11
0.606834
21
19.302903
0
LINE
8
Layer 1
10
0.606834
20
19.302903
11
1.172076
21
17.056717
0
LINE
8
Layer 1
10
1.172076
20
17.056717
11
1.943873
21
14.900622
0
LINE
8
Layer 1
10
1.943873
20
14.900622
11
2.910952
21
12.845879
0
LINE
8
Layer 1
10
2.910952
20
12.845879
11
4.062038
21
10.903749
0
LINE
8
Layer 1
10
4.062038
20
10.903749
11
5.385858
21
9.085494
0
LINE
8
Layer 1
10
5.385858
20
9.085494
11
6.871136
21
7.402375
0
LINE
8
Layer 1
10
6.871136
20
7.402375
11
8.506600
21
5.865654
0
LINE
8
Layer 1
10
8.506600
20
5.865654
11
10.280974
21
4.486592
0
LINE
8
Layer 1
10
10.280974
20
4.486592
11
12.182986
21
3.276450
0
LINE
8
Layer 1
10
12.182986
20
3.276450
11
14.201361
21
2.246491
0
LINE
8
Layer 1
10
14.201361
20
2.246491
11
16.324825
21
1.407974
0
LINE
8
Layer 1
10
16.324825
20
1.407974
11
18.542104
21
0.772163
0
LINE
8
Layer 1
10
18.542104
20
0.772163
11
20.841924
21
0.350318
0
LINE
8
Layer 1
10
20.841924
20
0.350318
11
23.213011
21
0.153700
0
LINE
8
Layer 1
10
23.213011
20
0.153700
11
23.213000
21
2.617260
0
LINE
8
Layer 1
10
23.213000
20
2.617260
11
18.320800
21
5.473940
0
LINE
8
Layer 1
10
11.524200
20
38.810600
11
15.105970
21
36.687750
0
LINE
8
Layer 1
10
15.105970
20
36.687750
11
15.036082
21
35.228830
0
LINE
8
Layer 1
10
15.036082
20
35.228830
11
15.239894
21
34.085092
0
LINE
8
Layer 1
10
15.239894
20
34.085092
11
15.795161
21
33.032263
0
LINE
8
Layer 1
10
15.795161
20
33.032263
11
16.656940
21
32.090000
0
LINE
8
Layer 1
10
16.656940
20
32.090000
11
17.780288
21
31.277959
0
LINE
8
Layer 1
10
17.780288
20
31.277959
11
19.120262
21
30.615795
0
LINE
8
Layer 1
10
19.120262
20
30.615795
11
20.631919
21
30.123165
0
LINE
8
Layer 1
10
20.631919
20
30.123165
11
22.270317
21
29.819725
0
LINE
8
Layer 1
10
22.270317
20
29.819725
11
23.990512
21
29.725130
0
LINE
8
Layer 1
10
23.990512
20
29.725130
11
25.669665
21
29.866220
0
LINE
8
Layer 1
10
25.669665
20
29.866220
11
27.199347
21
30.234689
0
LINE
8
Layer 1
10
27.199347
20
30.234689
11
28.556219
21
30.797470
0
LINE
8
Layer 1
10
28.556219
20
30.797470
11
29.716939
21
31.521491
0
LINE
8
Layer 1
10
29.716939
20
31.521491
11
30.658168
21
32.373685
0
LINE
8
Layer 1
10
30.658168
20
32.373685
11
31.356564
21
33.320980
0
LINE
8
Layer 1
10
31.356564
20
33.320980
11
31.788788
21
34.330308
0
LINE
8
Layer 1
10
31.788788
20
34.330308
11
31.931500
21
35.368600
0
LINE
8
Layer 1
10
31.931500
20
35.368600
11
31.783502
21
36.515698
0
LINE
8
Layer 1
10
31.783502
20
36.515698
11
31.369942
21
37.578955
0
LINE
8
Layer 1
10
31.369942
20
37.578955
11
30.706996
21
38.539224
0
LINE
8
Layer 1
10
30.706996
20
38.539224
11
29.810837
21
39.377363
0
LINE
8
Layer 1
10
29.810837
20
39.377363
11
28.697644
21
40.074224
0
LINE
8
Layer 1
10
28.697644
20
40.074224
11
27.383589
21
40.610664
0
LINE
8
Layer 1
10
27.383589
20
40.610664
11
25.884849
21
40.967538
0
LINE
8
Layer 1
10
25.884849
20
40.967538
11
24.217600
21
41.125700
0
LINE
8
Layer 1
10
24.217600
20
41.125700
11
21.995387
21
40.990300
0
LINE
8
Layer 1
10
21.995387
20
40.990300
11
20.434900
21
40.723800
0
LINE
8
Layer 1
10
20.434900
20
40.723800
11
17.822830
21
42.392380
0
LINE
8
Layer 1
10
17.822830
20
42.392380
11
24.025410
21
45.930470
0
LINE
8
Layer 1
10
24.025410
20
45.930470
11
42.318610
21
35.298770
0
LINE
8
Layer 1
10
42.318610
20
35.298770
11
44.415260
21
36.451930
0
LINE
8
Layer 1
10
44.415260
20
36.451930
11
42.745892
21
38.852544
0
LINE
8
Layer 1
10
42.745892
20
38.852544
11
40.770195
21
41.052504
0
LINE
8
Layer 1
10
40.770195
20
41.052504
11
38.496365
21
43.018244
0
LINE
8
Layer 1
10
38.496365
20
43.018244
11
35.932600
21
44.716200
0
LINE
8
Layer 1
10
35.932600
20
44.716200
11
33.802795
21
45.809127
0
LINE
8
Layer 1
10
33.802795
20
45.809127
11
31.616939
21
46.669700
0
LINE
8
Layer 1
10
31.616939
20
46.669700
11
29.390439
21
47.302054
0
LINE
8
Layer 1
10
29.390439
20
47.302054
11
27.138704
21
47.710322
0
LINE
8
Layer 1
10
27.138704
20
47.710322
11
24.877140
21
47.898637
0
LINE
8
Layer 1
10
24.877140
20
47.898637
11
22.621155
21
47.871132
0
LINE
8
Layer 1
10
22.621155
20
47.871132
11
20.386157
21
47.631942
0
LINE
8
Layer 1
10
20.386157
20
47.631942
11
18.187554
21
47.185200
0
LINE
8
Layer 1
10
18.187554
20
47.185200
11
16.040752
21
46.535039
0
LINE
8
Layer 1
10
16.040752
20
46.535039
11
13.961160
21
45.685593
0
LINE
8
Layer 1
10
13.961160
20
45.685593
11
11.964185
21
44.640994
0
LINE
8
Layer 1
10
11.964185
20
44.640994
11
10.065235
21
43.405378
0
LINE
8
Layer 1
10
10.065235
20
43.405378
11
8.279716
21
41.982877
0
LINE
8
Layer 1
10
8.279716
20
41.982877
11
6.623038
21
40.377625
0
LINE
8
Layer 1
10
6.623038
20
40.377625
11
5.110606
21
38.593754
0
LINE
8
Layer 1
10
5.110606
20
38.593754
11
3.757830
21
36.635400
0
LINE
8
Layer 1
10
3.757830
20
36.635400
11
5.837000
21
35.325000
0
LINE
8
Layer 1
10
5.837000
20
35.325000
11
11.524200
21
38.810600
0
LINE
8
Layer 1
10
42.947600
20
27.252900
11
39.060070
21
25.217410
0
LINE
8
Layer 1
10
39.060070
20
25.217410
11
37.863230
21
26.160901
0
LINE
8
Layer 1
10
37.863230
20
26.160901
11
36.776294
21
26.573013
0
LINE
8
Layer 1
10
36.776294
20
26.573013
11
35.603464
21
26.668273
0
LINE
8
Layer 1
10
35.603464
20
26.668273
11
34.380881
21
26.464801
0
LINE
8
Layer 1
10
34.380881
20
26.464801
11
33.144681
21
25.980720
0
LINE
8
Layer 1
10
33.144681
20
25.980720
11
31.931005
21
25.234147
0
LINE
8
Layer 1
10
31.931005
20
25.234147
11
30.775990
21
24.243205
0
LINE
8
Layer 1
10
30.775990
20
24.243205
11
29.715776
21
23.026012
0
LINE
8
Layer 1
10
29.715776
20
23.026012
11
28.786500
21
21.600691
0
LINE
8
Layer 1
10
28.786500
20
21.600691
11
28.053288
21
20.056769
0
LINE
8
Layer 1
10
28.053288
20
20.056769
11
27.551444
21
18.500766
0
LINE
8
Layer 1
10
27.551444
20
18.500766
11
27.282197
21
16.976293
0
LINE
8
Layer 1
10
27.282197
20
16.976293
11
27.246775
21
15.526962
0
LINE
8
Layer 1
10
27.246775
20
15.526962
11
27.446407
21
14.196385
0
LINE
8
Layer 1
10
27.446407
20
14.196385
11
27.882321
21
13.028173
0
LINE
8
Layer 1
10
27.882321
20
13.028173
11
28.555746
21
12.065938
0
LINE
8
Layer 1
10
28.555746
20
12.065938
11
29.467911
21
11.353291
0
LINE
8
Layer 1
10
29.467911
20
11.353291
11
30.557082
21
10.932921
0
LINE
8
Layer 1
10
30.557082
20
10.932921
11
31.735729
21
10.815889
0
LINE
8
Layer 1
10
31.735729
20
10.815889
11
32.966383
21
10.988579
0
LINE
8
Layer 1
10
32.966383
20
10.988579
11
34.211574
21
11.437376
0
LINE
8
Layer 1
10
34.211574
20
11.437376
11
35.433832
21
12.148662
0
LINE
8
Layer 1
10
35.433832
20
12.148662
11
36.595689
21
13.108822
0
LINE
8
Layer 1
10
36.595689
20
13.108822
11
37.659675
21
14.304240
0
LINE
8
Layer 1
10
37.659675
20
14.304240
11
38.588321
21
15.721301
0
LINE
8
Layer 1
10
38.588321
20
15.721301
11
39.182370
21
17.138721
0
LINE
8
Layer 1
10
39.182370
20
17.138721
11
39.671591
21
18.569241
0
LINE
8
Layer 1
10
39.671591
20
18.569241
11
42.982551
21
20.482431
0
LINE
8
Layer 1
10
42.982551
20
20.482431
11
42.965082
21
13.205321
0
LINE
8
Layer 1
10
42.965082
20
13.205321
11
24.715482
21
2.547321
0
LINE
8
Layer 1
10
24.715482
20
2.547321
11
24.724216
21
0.144911
0
LINE
8
Layer 1
10
24.724216
20
0.144911
11
27.634270
21
0.404808
0
LINE
8
Layer 1
10
27.634270
20
0.404808
11
30.523844
21
1.031619
0
LINE
8
Layer 1
10
30.523844
20
1.031619
11
33.359353
21
2.031896
0
LINE
8
Layer 1
10
33.359353
20
2.031896
11
36.107216
21
3.412191
0
LINE
8
Layer 1
10
36.107216
20
3.412191
11
38.111769
21
4.724226
0
LINE
8
Layer 1
10
38.111769
20
4.724226
11
39.942512
21
6.199614
0
LINE
8
Layer 1
10
39.942512
20
6.199614
11
41.595378
21
7.822958
0
LINE
8
Layer 1
10
41.595378
20
7.822958
11
43.066297
21
9.578865
0
LINE
8
Layer 1
10
43.066297
20
9.578865
11
44.351199
21
11.451941
0
LINE
8
Layer 1
10
44.351199
20
11.451941
11
45.446015
21
13.426791
0
LINE
8
Layer 1
10
45.446015
20
13.426791
11
46.346676
21
15.488020
0
LINE
8
Layer 1
10
46.346676
20
15.488020
11
47.049111
21
17.620235
0
LINE
8
Layer 1
10
47.049111
20
17.620235
11
47.549253
21
19.808040
0
LINE
8
Layer 1
10
47.549253
20
19.808040
11
47.843031
21
22.036042
0
LINE
8
Layer 1
10
47.843031
20
22.036042
11
47.926376
21
24.288846
0
LINE
8
Layer 1
10
47.926376
20
24.288846
11
47.795218
21
26.551057
0
LINE
8
Layer 1
10
47.795218
20
26.551057
11
47.445489
21
28.807282
0
LINE
8
Layer 1
10
47.445489
20
28.807282
11
46.873118
21
31.042125
0
LINE
8
Layer 1
10
46.873118
20
31.042125
11
46.074037
21
33.240193
0
LINE
8
Layer 1
10
46.074037
20
33.240193
11
45.044176
21
35.386091
0
LINE
8
Layer 1
10
45.044176
20
35.386091
11
42.947526
21
34.232931
0
LINE
8
Layer 1
10
42.947526
20
34.232931
11
42.947600
21
27.252900
 0 
ENDSEC
 0 
EOF